Minutemen - Boiling Chords & Tabs

 

Boiling Chords & Tabs

Minutemen Chords & Tabs

Version: 1 Type: Bass Tab 0 ratings
1 star 2 stars 3 stars 4 stars 5 stars
comments

Boiling Bass Tab

"Boiling" by MINUTEMEN
originally from "the punch line"

Fig.1
G:---------------------
D:----11---10---9---8--
A:-10----9----8---7----
E:---------------------
[ Tab from: http://www.guitartabs.cc/tabs/m/minutemen/boiling_btab.html ]
                                                    |play 1st, | play     |
                                                    |2nd,3rd   | 4th      |
Fig.2                                               |time      | time     |
     /P\   /P\   /P\   /P\   /P\   /P\   /P\   /P\  |          |          |
E:--6---5-6---5-6---5-6---5-6---5-6---5-6---5-6---5-|-5-5--5-5-|-7-6--5-6-|

Fig.3                          Fig.4 (I'm a bit dubious about this)
G:---------5---------------    G:---------3---3-----
D:-----------7-5-3---------    D:---0-3-5---5---5-3-
A:---0-3-5---------5-3-0---    A:-1-----------------
E:-1---------------------3-    E:-------------------

Play order:

Fig.1 through D.Boon's vocals
Fig.2
Fig.3 x 2
Fig.4
Fig.3

Notes:
/P\ == pull off

Dan Capper, DJC@liyorkrd.li.co.uk 


Comments