Minus The Bear - Memphis And 53rd Chords & Tabs

 

Memphis And 53rd Chords & Tabs

Minus The Bear Chords & Tabs

Version: 1 Type: Tab

Memphis And 53rd Tab

               INTRO/Riff 1
E|-12-14~-12-14~-------12-14-s-16-s-14-------12-14~-12-14~-------12-14-16--|
B|-------------------------------------------------------------------------|
G|-------------------------------------------------------------------------|
D|-------------------------------------------------------------------------|
A|-------------------------------------------------------------------------|
E|-------------------------------------------------------------------------|

             VERSE/Riff 2
E|-------------------------------------------------------------------------|
B|-------------------------------------------------------------------------|
G|-6-6-8-9-11~-9~-11-s-13-11~----6-6-8-9-11~-9~-11-s-13-11~----------------|
D|-------------------------------------------------------------------------|
A|-------------------------------------------------------------------------|
E|-------------------------------------------------------------------------|

          Interlude/Riff 3
E|-------------------------------------------------------------------------|
B|-14-14--12-12--10-10--9-9-10-9-------------------------------------------|
G|-------------------------------------------------------------------------|
D|-11-11--9--9---7--7---6-6-7--6-------------------------------------------|
A|-------------------------------------------------------------------------|
E|-------------------------------------------------------------------------|
[ Tab from: http://www.guitartabs.cc/tabs/m/minus_the_bear/memphis_and_53rd_tab.html ]
               CHORUS/Riff 4 NOTE:The chorus is the live version.
E|-------------------------------------------------------------------------|
B|-------------------------------------------------------------------------|
G|-6-6-6-4---4-6-66-6-6-4-6-4-6-s-8-6-6-4-6-6-8-6-4------------------------|
D|---------6----------------------------------------6----------------------|
A|-------------------------------------------------------------------------|
E|-------------------------------------------------------------------------|

             BRIDGE/Riff 5  NOTE:It's the live version.
E|-------------------------------------------------------------------------|
B|-------------------------------------------------------------------------|
G|-6-6-8-9-11-11----6-6-s-13-11-9-9----8-8-8-8-8-8-8-8-8-4-4-4-4-4-4-444444|
D|-------------------------------------------------------------------------|
A|-------------------------------------------------------------------------|
E|-------------------------------------------------------------------------|

                               song order: Riff 1
                                           Riff 2
                                           Riff 3
                                           Riff 2
                                           Riff 3
                                           Riff 4
                                           Riff 3
                                           Riff 2
                                           Riff 3
                                           Riff 4
                                           Riff 5
                                           Riff 3
                                           Riff 6/chorus variation(not tabbed)

This may be a little choppy because half of it is the live version, but just listen
to the cd, and you'll realize that most of the live parts are there because they
are parts that were done by either keyboard or delay pedal on M.T.B's latest cd
So, Basically, I have all the essential parts. Later!