Minor Threat - Straight Edge Chords & Tabs

 

Straight Edge Chords & Tabs

Minor Threat Chords & Tabs

Version: 1 Type: Bass Tab 0 ratings
1 star 2 stars 3 stars 4 stars 5 stars
comments

Straight Edge Bass Tab

Song Title: Straight Edge
Artist: minor threat
----------------------------------------------

G-------------------------
D-------------------------
A-------------------------
E-333--66--3333--666------ (REPEAT)
[ Tab from: http://www.guitartabs.cc/tabs/m/minor_threat/straight_edge_btab.html ]
G-------------------------
D-------------------------
A-3333--11-----3333--11-----3333--11-----3333--11-----5555--33-----5555--33--------
E-----------1------------1------------1------------1------------3------------3-----

---------------------------
---------------------------
-5555--33-----5555--33-----
-----------3------------3--
that's all the parts.

Submitted by:  Steve Webster (webster@limestone.kosone.com)

Comments