Minor Threat - Screaming At A Wall Chords & Tabs

 

Screaming At A Wall Chords & Tabs

Minor Threat Chords & Tabs

Version: 2 Type: Tab

Screaming At A Wall Tab

This song has been tabbed wrong everywhere i look, so im gonna try
to fix it up a little bit for you, give me your feedback, send me
messeges to the email below for changes and whatever...


E|----------------3-3---3-3-3-------------------------------------||
B|----------------3-3---3-3-3-------------------------------------||
G|----------------4-4---4-4-4-------------------------------------||
D|--7-----10------5-5---5-5-5----X6-------------------------------||
A|--5--7--8--10---5-5---5-5-5-------------------------------------||
E|-----9-----8----3-3---3-3-3-------------------------------------||

FINNALLY THE INTRO IS CORRECT!


[ Tab from: http://www.guitartabs.cc/tabs/m/minor_threat/screaming_at_a_wall_tab_ver_2.html ]
E|----------------------------------------------------------------||
B|----------------------------------------------------------------||
G|----------------------------------------------------------------||
D|---------------6-7-7----------x4--------------------------------||
A|-8-9-10-5-5-5--4-5-5-8-8-8--------------------------------------||
E|-6-7-8--3-3-3--------6-6-6--------------------------------------||
IM SCREAMIN AT A WALL!!
 (repeat both of those up ther twice....i think its right...probly not, but try it and tell me)

----------------the slow part--------------------------------------

E|----------------------------------------------------------------||
B|----------------------------------------------------------------||
G|----------------------------------------------------------------||
D|----------9-9-9-9--7-7-7----------------------------------------||
A|-9-9-9-9--7-7-7-7--5-5-5-7-7-7-7-7------------------------------||
E|-7-7-7-7-----------------5-5-5-5-5------------------------------||
   : : : :  : : : :  : : : : : : : :     :=palm muted
( there is different variations of the palm muting, like little spaz's where ian screams
every once in a while)

then repeat the first part for the outro and your done

(email me for any changes you want to be made or comments or whatever you want)
 jesse_baysinger@yahoo.com