Minor Threat - Filler Chords & Tabs

 

Filler Chords & Tabs

Minor Threat Chords & Tabs

Version: 2 Type: Tab 1 rating
1 star 2 stars 3 stars 4 stars 5 stars
comments

Filler Tab

Minor Threat
Filler
by Wolfstrike
wolfstrike2@usinmail.com


(this song is played very freely, and slightly different on every round)
(sounds best using down strokes and downward bends)
(d = down stroke previous chord)



E:------------------------|
B:------------------------|
G:------------------------|
D:--4------------(4)------|
A:--4------------(4)------|
E:--2------------(2)------|




    (what happened to you?..)    (repeat)
         
E:------------------------------------------|
B:--11--------------------------------------|
G:--11-----------------6-4---7----7-7-------|
A:--9------------------6-4---7----7-7-------|
E:--9-d-d-d-d-d-d-d----4-2-0-5----5-5-0-----|




     (it's in your head ...)                       (...filler)
[ Tab from: http://www.guitartabs.cc/tabs/m/minor_threat/filler_tab_ver_2.html ]
E:----------------------------------------------------------|
B:----------------------------------------------------------|
G:--9---------------7-7-7-7b------------------------2-4-4b--|
D:--9---------------7-7----------7----------------4---------|
A:--7---------------5-5----------7----------------4---------|
E:--7-d-d-d-d-d-d---5-5----------5--d-d-d-d-d-d---2---------|





       (you call it romance, your full of sh*t)

E:------------------------------------------------------------------|
B:------------------------------------------------------------------|
G:--9---------------7-----------------------------------------------|
D:--9---------------7------------------7---------------4------(4)---|
A:--7---------------5------------------7---------------4------(4)---|
E:--7-d-d-d-d-d-d---5-d-d-d-d-d-d------5-d-d-d-d-d-d---2------(2)---|


     (good ol' fashion punk rock (solo noise) based on the high notes of the
      chords, probably played differently every time)




Comments