Minor Threat - Bottled Violence Chords & Tabs

 

Bottled Violence Chords & Tabs

Minor Threat Chords & Tabs

Version: 1 Type: Bass Tab 0 ratings
1 star 2 stars 3 stars 4 stars 5 stars
comments

Bottled Violence Bass Tab

Song:  Bottled Violence
Band:  Minor Threat
Album: Complete Discography
tabbed by:  O dog

[ Tab from: http://www.guitartabs.cc/tabs/m/minor_threat/bottled_violence_btab.html ]
   
 Verse:
G:---------------------------------------------------------------
D:---------------------------------------------------------------
A:------3--5------3-------------------------------------------------
E:--5----------1-------5--------------------------------------------

Chorus:
G:---------------------------------------------------------------
D:---------------------------------------------------------------
A:------3--3--3--1---------------------------------------------------
E:--3-------------------------------------------------------------


Comments