Minor Threat - 12xu Chords & Tabs

 

12xu Chords & Tabs

Minor Threat Chords & Tabs

Version: 1 Type: Tab 1 rating
1 star 2 stars 3 stars 4 stars 5 stars
comments

12xu Tab

Minor Threat
12xu
by Wolfstrike
wolfstrike2@usinmail.com









E: -----------------------------|
B: -----------------------------|
G: --10-------------------------|
D: --10-10-10-------5-5-5-------|
A: --8--10-10-------5-5-5-------|
E: -----8--8--------3-3-3-------|




  (repeat)

E: ------------------------------------|
B: ------------------------------------|
G: ---------10-------------------------|
D: --10-10--10--10-10--------5-5-5-----|
A: --10-10--8---10-10--------5-5-5-----|
E: --8--8-------8--8---------3-3-3-----|





    (sorry, all down picking)
   |......light palm mute......................................|

E: ------------------------------------------------------------|
B: ------------------------------------------------------------|
G: ------------------------------------------------------------|
D: --2-2-2-2-2-2-2-2-2-2-2-2-2-2-2-2-2-2-2-2-2-2-2-2-2-2-2-2---|
A: --2-2-2-2-2-2-2-2-2-2-2-2-2-2-2-2-2-2-2-2-2-2-2-2-2-2-2-2---|
E: --0-0-0-0-0-0-0-0-0-0-0-0-0-0-0-0-0-0-0-0-0-0-0-0-0-0-0-0---|




    (repeat)  (palm mute lifts sooner second time)
   |......light palm mute..........|
[ Tab from: http://www.guitartabs.cc/tabs/m/minor_threat/12xu_tab.html ]
E: ---------------------------------------------|
B: ---------------------------------------------|
G: ---------------------------------------------|
D: --2-2-2-2-2-2-2-2-2-2-2-2-2-2-2-2-2-2-2-2----|
A: --2-2-2-2-2-2-2-2-2-2-2-2-2-2-2-2-2-2-2-2----|
E: --0-0-0-0-0-0-0-0-0-0-0-0-0-0-0-0-0-0-0-0----|




E: -------------------------------------|
B: -------------------------------------|
G: --7-7-7-7-7-7-7-7-7-7-7-7-7-7-7-7----|
D: --7-7-7-7-7-7-7-7-7-7-7-7-7-7-7-7----|
A: --5-5-5-5-5-5-5-5-5-5-5-5-5-5-5-5----|
E: -------------------------------------|


E: -------------------------------------|
B: -------------------------------------|
G: --7-7-7-7-7-7-7-7-7-7-7-7-x-x-x-x-x--|
D: --7-7-7-7-7-7-7-7-7-7-7-7-x-x-x-x-x--|
A: --5-5-5-5-5-5-5-5-5-5-5-5-x-x-x-x-x--|
E: -------------------------------------|


E: ----------------------------------------------|
B: ----------------------------------------------|
G: ----------------------------------------------|
D: --2-2----2-2----2-2----2-2----2-2----2-2------|
A: --2-2----2-2----2-2----2-2----2-2----2-2------|
E: --0-0----0-0----0-0----0-0----0-0----0-0------|



E: ------------------------------------------------------------|
B: ------------------------------------------------------------|
G: ------------------------------------------------------------|
D: --2-2-2-2-2-2-2-2-2-2-2-2-2-2-2-2-2-2-2-2-2-2-2-2-2-2-2-2---|
A: --2-2-2-2-2-2-2-2-2-2-2-2-2-2-2-2-2-2-2-2-2-2-2-2-2-2-2-2---|
E: --0-0-0-0-0-0-0-0-0-0-0-0-0-0-0-0-0-0-0-0-0-0-0-0-0-0-0-0---|

Comments