Ministry - Thieves Chords & Tabs

 

Thieves Chords & Tabs

Ministry Chords & Tabs

Version: 2 Type: Tab 0 ratings
1 star 2 stars 3 stars 4 stars 5 stars
comments

Thieves Tab

   
Minstry
Greatest Fits
Thieves
GUITAR
--====--
ss4_aaron@yahoo.com

Please email me at speed_racer420@hotmail.com, 
if you have any questions.


Thieves


Intro:

D --------------------------------------------- 
A -----------------3----------------3----------                     
E -0-0-0-0-0-0-0-0---0-0-0-0-0-0-0-------------                   
[ Tab from: http://www.guitartabs.cc/tabs/m/ministry/thieves_tab_ver_2.html ]
D --11------------------
A --11-(bend all)-------
E --9-------------------

(play chord once, and let it ring for 1/4 count)

Main Riff:


E-0-0-3-0-0-2-0-0-2-0-0-3 repeat until fast riff


fast riff:


E-3-2-0-3-2-0-3-2-0-3-2-0-3


then go back to the Intro


Ending:

D ----8--/---6--
A ----10-/---8--
E ----10-/---8--

--====--
ss4_aaron@yahoo.com

Comments