Ministry - Reload Chords & Tabs

 

Reload Chords & Tabs

Ministry Chords & Tabs

Version: 1 Type: Bass Tab 0 ratings
1 star 2 stars 3 stars 4 stars 5 stars
comments

Reload Bass Tab

Ministry - Reload
From "Filth Pig"
As tabbed out for bass by Zephie

Standard tuning:
G]---|
D]---|
A]---|
E]---|

*****

Intro
||------------------------------------------
||------------------------------------------
||------------------------------------------ 2 times
||---3------3------3-3-3-3------3-3---------

------------------------------------------||
------------------------------------------||
------------------------------------------|| 2 times
---0------0------0-0-0-0------0-0---------||

"Three, two, one... roll five."


Riff A / Chorus
|----------------------|
|----------------------|
|----------------------|
|--5---0-0--0-0--6-5---|


Riff B /Fill
|----------------|
|----------------|
|----------------|
|--5---0-0-5-6---|


Riff C / Verse
|--------------|
|--------------|
|--------------|
|--7---0---0---|


*****

Intro x 1
Riff A x 8
* Coda
Riff B x 8
Riff C x 5
Riff A x 2
Riff B x 1 / Riff C x 5
Riff A x 6
* Go back to Coda for second verse & chorus
= Breakdown (just play some notes following the drums on the open E string)
Riff B x 11
Riff A x 2
Riff C x 5
Riff A x 2
Riff B x 1 / Riff C x 5
Riff A x 6

*****

Lyrics reprint:
(three... two... one... roll five.)
[ Tab from: http://www.guitartabs.cc/tabs/m/ministry/reload_btab.html ]
You got something to say, you better jump in my face
Got something to hide, you're scared as shit and should die

Aim!
Aim!
Reload

You say it's time to collect, I'll kick your ass and eject
Time to settle the score, throw your ass through the door

Aim!
Aim!
Reload

You wanna lie like a dog, you're gonna wake up with fleas
Inside a world full of shit, you're still an asshole to me

Aim!
Aim!
Reload

*****

Following up my Stigmata tab, I just decided to go ahead and try my hand at this one.

Some of those "play this so many times" notes might not be too accurate, but they give a
general idea of how times they're played.
I'm apologizing up front if they're off by a bit, 'cause I don't normally put notes like
that in any songs I tab, so (as this is my first time),
they're likely not right.  Sorry about that. x.x  But even despite that, there's only
three riffs to the whole song (discounting the intro), so it's
really simple anyways...

I'm also not 100% sure about Riff C, but that's as close as it sounds to me when I listen
through for a half hour straight on the same section... _

Just lettin' ya know to take it with a grain of salt.

ANYway... kickass song with a kickass bass track.  Have fun! :D

 - Zephie
Comments