Ministry - Just One Fix Chords & Tabs

 

Just One Fix Chords & Tabs

Ministry Chords & Tabs

Version: 2 Type: Tab 0 ratings
1 star 2 stars 3 stars 4 stars 5 stars
comments

Just One Fix Tab

   
join the death/black metal tab mailing list by emailing 
        

From: gferg@hoop.csd.sgi.com (Greg Ferguson)

I can't take credit for this, but here it is...

TAB: "Just One Fix" - Ministry
==============================


Opening /                   Main Riff:

E--------------------------------------------------------------------------
B--------------------------------------------------------------------------
G--------------------------------------------------------------------------
D--------------------------------------------------------------------------
A---8-8---8-8---8-8---8-8--|-3-----2------------|-7/5---8------------------
E---6-6---6-6---6-6---6-6--|-1-0-0-0-0--0-0-0-0-|-5/3-0-6-0--0-0-0-0-------

The high part in the beginning:
[ Tab from: http://www.guitartabs.cc/tabs/m/ministry/just_one_fix_tab_ver_2.html ]
E--------------------------------------------------------------------------
B--------------------------------------------------------------------------
G----------9--8---------9--8----------9--8--9------------------------------
D-9--8------------9--8----------9--8---------------------------------------
A--------------------------------------------------------------------------
E--------------------------------------------------------------------------

First half Bridge is Main Riff played with 8th notes/Second half
of bridge follows:

E--------------------------------------------------------------------------
B--------------------------------------------------------------------------
G--------------------------------------------------------------------------
D--------------------------------------------------------------------------
A-5-----5-----5-----4-----5---4---|-(3x)-|-5-----5-----5---8-8-8-8-8-8-8-8
E-3-0-0-3-0-0-3-0-0-2-0-0-3-0-2-0-|-(3x)-|-3-0-0-3-0-0-3-0-6-6-6-6-6-6-6-6

Slayer riff part:

E--------------------------------------------------------------------------
B--------------------------------------------------------------------------
G-------------0-9-0-8-0-7--------------------------------------------------
D-5--7---9----------------9-7-5--------------------------------------------
A--------------------------------7-----------------------------------------
E--------------------------------------------------------------------------


---
MOSH!
Ferg      "Don't hold me back...this is my own hell..."
                                                - Godflesh
Greg Ferguson - SGI CSD R&D - gferg@csd.sgi.com
Comments