Ministry - Burning Inside Chords & Tabs

 

Burning Inside Chords & Tabs

Ministry Chords & Tabs

Version: 1 Type: Bass Tab 0 ratings
1 star 2 stars 3 stars 4 stars 5 stars
comments

Burning Inside Bass Tab

Ministry
Burning inside
Tune down half a step on all strings maybe. Or just play one fret lower on a
ll
notes. This may sound out of tune because I don't think I am in tune.

    Verse                                 x8
    G--------------------------------------|
    D*------------------------------------*|
    A*------------------------------6-----*|
    E--6-5----6-5----6-5----6-5---3---6-5--|

    First Chorus "Burning inside, burning inside..."   x2
    G---------------------------------------------------|
    D*-------7-------7-5-----------7-------------------*|
    A*-------------------7-----------------------6-----*|
    E---6-5------6-5----------6-5------6-5-5-5-3---6-5--|

    Verse x8
[ Tab from: http://www.guitartabs.cc/tabs/m/ministry/burning_inside_btab.html ]
    Second Chorus "Burning inside, burning inside, burning inside...." x8
    G---------------|
    D*-------------*|
    A*---------6---*|     
    E--5-5-5-3---6--|

    Verse x8
    Second Chorus x8

    Fill
    G------------------------------|
    D----Hold this 3 and slightly--|
    A----vibrate to keep sustain---|
    E--5-3-------------------------| Some feedback would be nice here.

    Verse x3
    Second Chorus x15
    Verse x2 then repeat Verse to fade out      

    Any comments/questions/suggestions? Mail me.
    ----------
    Benjamin

    "Control your life through insanity" - Cliff Burton

    E-mail: j6872839@ironbark.bendigo.latrobe.edu.au
    URL: http://ironbark.bendigo.latrobe.edu.au/~j6872839/westy.html
    ------------------------------------------------------------------ 

Comments