Ministri - Il Sole Chords & Tabs

 

Il Sole Chords & Tabs

Ministri Chords & Tabs

Version: 1 Type: Bass Tab

Il Sole Bass Tab

IL SOLE - MINISTRI
ALBUM : FUORI


INTRO

|-------------------------------------------------------------------|
|-------------------------------------------------------------------|
|-9-99--------------------------------------------------------------|
|------4-24-2-2424--------------------------------------------------|

                                               |--------------------|
                                               |--------------------|
sempre uguale, solo la seconda volta varia --> |-9-99--------2343---|
                                               |------4-24-2--------|


VERSE
[ Tab from: http://www.guitartabs.cc/tabs/m/ministri/il_sole_btab.html ]
|-------------------|       |-----------------------------------------------------------|
|-------------------|       |-----------------------------------------------------------|
|-9-99--------------|  x 4  |---------------------------------------------------9999999-|
|------4-24-2-2424--|       |-22222222222222222222222222222222222222222222222222--------|

                         "dire..."


CHORUS

|------------------------------------------------------------------------------------------|
|------------------------------------------------------------------------------------------|
|------------------------------------------------------------------------------------------|
|--555555555555555555555555-101010101010101010-999999999999999-777777777777-55555555555555-|

Nel secondo ritornello viene ripetuto pił volte.


BRIDGE FINALE

|------------|          |------------------|
|------------|          |------------------|
|-9-99-------|  X 3     |-9-99--------2343-|
|------4-24--|          |------4-24-4------|


Nella canzone Davide utilizza un'overdrive per dare quell'effetto distorto al basso. 
(Consiglio l'ODB-3 della BOSS)