Ming Tea - Bbc Chords & Tabs

 

Bbc Chords & Tabs

Ming Tea Chords & Tabs

Version: 2 Type: Tab 0 ratings
1 star 2 stars 3 stars 4 stars 5 stars
comments

Bbc Tab

-------------------------------------------------------------------------------
			     BBC- Ming Tea
-------------------------------------------------------------------------------
Tabbed by: nick_feinig
Email: skatefool@hotmail.com

Tuning: Standard EADGBE
Medium Distortion

Notes: Hey all, this is my first tab, so let me know how it is. This song is preformed
at the end of Austin Powers: International Man Of Mystery. It can't be much simpler. I
haven't tabbed the solo yet but I may if I get time. Enjoy.
[ Tab from: http://www.guitartabs.cc/tabs/m/ming_tea/bbc_tab_ver_2.html ]
e|---------------------------------------------------------------------------|
B|---------------------------------------------------------------------------|
G|---------------------------------------------------------------------------|
D|12---12---7---7---2--------12---12---7---7---2--------------12---12---7---7|
A|12---12---7---7---2--------12---12---7---7---2--------------12---12---7---7|
E|10---10---5---5---0--------10---10---5---5---0--------------10---10---5---5|
                      -Mrs.-                     -Will Yah?-  
e|---------------------------------------------------------------------------|
B|---------------------------------------------------------------------------|
G|---------------------------------------------------------------------------|
D|---2------------------12---12---7---7---2-------------------------12---12--|
A|---2------------------12---12---7---7---2-------------------------12---12--|
E|---0------------------10---10---5---5---0-------------------------10---10--|
        -Make Me Tea?-                         -Make Love To Me?-
e|---------------------------------------------------------------------------|
B|---------------------------------------------------------------------------|
G|---------------------------------------------------------------------------|
D|-7---7---2------------------------12---12---7---7---2--------------------12|
A|-7---7---2------------------------12---12---7---7---2--------------------12|
E|-5---5---0------------------------10---10---5---5---0--------------------10|
              -Put On The Tele?-                         -To The BBC!-
e|---------------------------------------------------------------------------|
B|---------------------------------------------------------------------------|
G|---------------------------------------------------------------------------|
D|---12---7---7---22222---12---12---7---7---22222------121212121212----141414|
A|---12---7---7---22222---12---12---7---7---22222------121212121212----141414|
E|---10---5---5---00000---10---10---5---5---00000------101010101010----121212|
                        -To The BBC! Yeh! Yeh! Yeh!-   -BBC 1!-      -BBC 2!-
e|---------------------------------------------------------------------------|
B|---------------------------------------------------------------------------|
G|---------------------------------------------------------------------------|
D|141414---121212121212---141414141414----121212121212---141414141414--------|
A|141414---121212121212---141414141414----121212121212---141414141414--------|
E|121212---101010101010---121212121212----101010101010---121212121212--------|
             -BBC 3!-       -BBC 4!-        -BBC 5!-        -BBC 6!-
e|---------------------------------------------------------------------------|
B|---------------------------------------------------------------------------|
G|---------------------------------------------------------------------------|
D|121212121212---141414141414------------------------------------------------|
A|121212121212---141414141414------------------------------------------------|
E|101010101010---121212121212------------------------------------------------|
    -BBC 7!-     -BBC Heaven!-

That's pretty much it. Later in the song theres a little bit of muted string strumming
between chord progressions but the rest of the song is really the same as what is
tabbed above. Any questions or additions to make please feel free to e-mail me at
skatefool@hotmail.com.
===============================================================================
Comments