Mindless Self Indulgence - Tornado Chords & Tabs

 

Tornado Chords & Tabs

Mindless Self Indulgence Chords & Tabs

Version: 1 Type: Bass Tab 0 ratings
1 star 2 stars 3 stars 4 stars 5 stars
comments

Tornado Bass Tab

Tabz Submitted by Sym_Zombie:
 know any more mindless bass tabs? IM me on AIM sn is Retardosym
 if you think this sounds off when you play it, lemme know!
i suggest having the song along with you to get a feel for it, since there are
parts withno bass at all, this is just straight through what is actually played

G|-----------------------------------------------
D|-----------------------------------------------
A|--------------2-2-2-3----------------2-2-2-3-3-
E|--2-2-2-3-3-3----------2-2-2-3-3-3-------------

G|-----------------------------------------------
D|-----------------------------------------------
A|--------------2---0---------------2-2-2-3-3----
E|--2-2-2-3-3-3----------2-2-2-3-3-3-------------
[ Tab from: http://www.guitartabs.cc/tabs/m/mindless_self_indulgence/tornado_btab.html ]
G|---------------------------------------------------
D|---------------------------------------------------
A|--------------2--2---4--4--00774455--4--4--00774455
E|--2--2--3--3---------------------------------------

G|-----------------------------------------------
D|-----------------------------------------------
A|--------------2-2-2-3-3--------------2-2-2-3-3-
E|--2-2-2-3-3-3----------2-2-2-3-3-3-------------

...

G|-----------------------------------------------
D|-----------------------------------------------
A|--------------2-2-2-3-3--------------2-2-2-3-3-
E|--2-2-2-3-3-3----------2-2-2-3-3-3-------------

G|---------------------------------------------------
D|---------------------------------------------------
A|--------------2--2---4--4--00774455--4--4--00774455
E|--2--2--3--3---------------------------------------

G|-----------------------------------------------
D|-----------------------------------------------
A|--------------2-2-2-3-3--------------2-2-2-3-3-
E|--2-2-2-3-3-3----------2-2-2-3-3-3-------------
Comments