Mindless Self Indulgence - Shut Me Up Chords & Tabs

 

Shut Me Up Chords & Tabs

Mindless Self Indulgence Chords & Tabs

Version: 3 Type: Tab 0 ratings
1 star 2 stars 3 stars 4 stars 5 stars
comments

Shut Me Up Tab

   
Band: Mindless Self Indulgence
Song: Shut Me Up
Tabber: Vincent

My cousin wanted me to learn how to play this song, but there weren\'t
any good tabs for it.  Being the generous man that I am, I have tabbed
it out for all of you to enjoy.  It\'s a very easy song to learn, so if 
you\'re an amateur you shouldn\'t have much problems with it.

e|-----------------------------------------|
B|-----------------------------------------|
G|-----------------------------------------|
D|-4-----6---7-----6---7-----6---3-----4---|
A|-4(X5)-6---7(X5)-6---7(X5)-6---3(X5)-4---|
E|-2-----4---5-----4---5-----4---1-----2---|

e|---------------------------------------|
B|---------------------------------------|
G|---------------------------------------|
D|-4-----6---7-----6---7-----6---3---4---|
A|-4(X5)-6---7(X5)-6---7(X5)-6---3---4---|
E|-2-----4---5-----4---5-----4---1---2---|

e|-----------------------------------------|
B|-----------------------------------------|
G|-----------------------------------------|
D|-4-----6---7-----6---7-----6---3-----4---| Repeat 3X
A|-4(X5)-6---7(X5)-6---7(X5)-6---3(X5)-4---|
E|-2-----4---5-----4---5-----4---1-----2---|

e|---------------------------------------|
B|---------------------------------------|
G|---------------------------------------|
D|-4-----6---7-----6---7-----6---3---4---|
A|-4(X5)-6---7(X5)-6---7(X5)-6---3---4---|
E|-2-----4---5-----4---5-----4---1---2---|

e|---------------------------|
B|---------------------------|
G|---------------------------|
D|-4-----7-----6-----3---3-3-|
A|-4(X8)-7(X8)-6(X8)-3---3-3-|
E|-2-----5-----4-----1---1-1-|

e|-----------------------------|
B|-----------------------------|
G|-----------------------------|
D|-4-----7-----6-----3-X-X-3---|
A|-4(X8)-7(X8)-6(X8)-3-X-X-3---|
E|-2-----5-----4-----1-X-X-1---|

e|---------------------------|
B|---------------------------|
G|---------------------------|
D|-4-----7-----6-----3---3-3-|
A|-4(X8)-7(X8)-6(X8)-3---3-3-|
E|-2-----5-----4-----1---1-1-|

e|-------------------------------|
B|-------------------------------|
G|-------------------------------|
D|-4-----7-----6-----3-X-X-3-X-X-|
A|-4(X8)-7(X8)-6(X8)-3-X-X-3-X-X-|
E|-2-----5-----4-----1-X-X-1-X-X-|

e|---------------------------------|
B|---------------------------------|
G|-6---------------4-------3-3-3---|
D|-6(Hold)---------4(Hold)-3-3-3---|
A|-4---------------2-------1-1-1---|
E|---------------------------------|

e|---------------------------------|
B|---------------------------------|
G|-6---------------4-------3-------|
D|-6(Hold)---------4(Hold)-3-------|
A|-4---------------2-------1-------|
E|---------------------------------|
[ Tab from: http://www.guitartabs.cc/tabs/m/mindless_self_indulgence/shut_me_up_tab_ver_3.html ]
e|-----------------------------------------|
B|-----------------------------------------|
G|-----------------------------------------|
D|-4-----6---7-----6---7-----6---3-----4---| Repeat 3X
A|-4(X5)-6---7(X5)-6---7(X5)-6---3(X5)-4---|
E|-2-----4---5-----4---5-----4---1-----2---|

e|---------------------------------------|
B|---------------------------------------|
G|---------------------------------------|
D|-4-----6---7-----6---7-----6---3---4---|
A|-4(X5)-6---7(X5)-6---7(X5)-6---3---4---|
E|-2-----4---5-----4---5-----4---1---2---|

e|---------------------------|
B|---------------------------|
G|---------------------------|
D|-4-----7-----6-----3---3-3-|
A|-4(X8)-7(X8)-6(X8)-3---3-3-|
E|-2-----5-----4-----1---1-1-|

e|-----------------------------|
B|-----------------------------|
G|-----------------------------|
D|-4-----7-----6-----3-X-X-3---|
A|-4(X8)-7(X8)-6(X8)-3-X-X-3---|
E|-2-----5-----4-----1-X-X-1---|

e|---------------------------|
B|---------------------------|
G|---------------------------|
D|-4-----7-----6-----3---3-3-|
A|-4(X8)-7(X8)-6(X8)-3---3-3-|
E|-2-----5-----4-----1---1-1-|

e|-------------------------------|
B|-------------------------------|
G|-------------------------------|
D|-4-----7-----6-----3-X-X-3-X-X-|
A|-4(X8)-7(X8)-6(X8)-3-X-X-3-X-X-|
E|-2-----5-----4-----1-X-X-1-X-X-|

e|----------------------------------------|
B|----------------------------------------|
G|-4-----2-----6-----10-----11-----10-----|
D|-4(X8)-2(X8)-6(X8)-10(X4)-11(X2)-10(X2)-| Repeat 3X
A|-2-----0-----4-----8------9------8------|
E|----------------------------------------|

e|-----------------------------|
B|-----------------------------|
G|-4-----2-----6-----10---11---|
D|-4(X8)-2(X8)-6(X8)-10---11---|
A|-2-----0-----4-----8----9----|
E|-----------------------------|

e|----------------------------------------|
B|----------------------------------------|
G|-4-----2-----6-----10-----11-----10-----|
D|-4(X8)-2(X8)-6(X8)-10(X4)-11(X2)-10(X2)-|
A|-2-----0-----4-----8------9------8------|
E|----------------------------------------|

e|-----------------------------|
B|-----------------------------|
G|-4-----2-----6-----10---11---|
D|-4(X8)-2(X8)-6(X8)-10---11---|
A|-2-----0-----4-----8----9----|
E|-----------------------------|

e|---------------------------|
B|---------------------------|
G|---------------------------|
D|-4-----7-----6-----3---3-3-|
A|-4(X8)-7(X8)-6(X8)-3---3-3-|
E|-2-----5-----4-----1---1-1-|

e|-----------------------------|
B|-----------------------------|
G|-----------------------------|
D|-4-----7-----6-----3-X-X-3---|
A|-4(X8)-7(X8)-6(X8)-3-X-X-3---|
E|-2-----5-----4-----1-X-X-1---|

e|---------------------------------|
B|---------------------------------|
G|---------------------------------|
D|-4-------7-------6-------3---3-3-|
A|-4(Hold)-7(Hold)-6(Hold)-3---3-3-|
E|-2-------5-------4-------1---1-1-|

e|-------------------------------------|
B|-------------------------------------|
G|-------------------------------------|
D|-4-------7-------6-------3---3---4---|
A|-4(Hold)-7(Hold)-6(Hold)-3---3---4---|
E|-2-------5-------4-------1---1---2---|
Comments