Mindless Self Indulgence - Shut Me Up Chords & Tabs

 

Shut Me Up Chords & Tabs

Mindless Self Indulgence Chords & Tabs

Version: 1 Type: Tab 1 rating
1 star 2 stars 3 stars 4 stars 5 stars
comments

Shut Me Up Tab

-----------------------------------------------------------------------------
		   Mindless Self Indulgence - Shut Me Up 
-----------------------------------------------------------------------------
Tabbed by: KronusX	
Tuning: Standard
E-mail: mr_whoggie77@hotmail.com

Decided to tab this since their are no correct tabs that i have been able to find so far. 
This is my first tab so hopefully its correct. If you have any comments or questions please 
feel free to e-mail me. MSI Is the greatest band ever!

Song Progression:

Main Riff

Chorus

Break 1

Main Riff

Chorus

Break 2

Chorus 

End

                    Main Riff:
e|-----------------------------------------------------------------------------------|      
B|-----------------------------------------------------------------------------------|
G|-----------------------------------------------------------------------------------|
D|-5-----7---8-----7---8-----7----4-----5----5-----7---8-----7---8-----7---4-----5---|
A|-5(X5)-7---8(X5)-7---8(X5)-7----4(x5)-5----5(X5)-7---8(X5)-7---8(X5)-7---4-----5---|
E|-3-----5---6-----5---6-----5----2-----3----3-----5---6-----5---6-----5---2-----3---|

e|-----------------------------------------|      
B|-----------------------------------------| 
G|-----------------------------------------|
D|-5-----7---8-----7---8-----7----4-----5--| Repeat x3
A|-5(X5)-7---8(X5)-7---8(X5)-7----4(x5)-5--|
E|-3-----5---6-----5---6-----5----2-----3--|  
[ Tab from: http://www.guitartabs.cc/tabs/m/mindless_self_indulgence/shut_me_up_tab.html ]
e|-----------------------------------------|      
B|-----------------------------------------| 
G|-----------------------------------------|
D|-5-----7---8-----7---8-----7----4-----5--| 
A|-5(X5)-7---8(X5)-7---8(X5)-7----4-----5--|
E|-3-----5---6-----5---6-----5----2-----3--|   
                                              
                     Chorus:
e|---------------------------------------------------|
B|---------------------------------------------------|
G|---------------------------------------------------|
D|-5----8----7----4---4--4---5----8----7----4---4-4--|Repeat x2
A|-5----8----7----4---4--4---5----8----7----4---4-4--|
E|-3----6----5----2---2--2---3----6----5----2---2-2--|   
                                 
                     Break 1:                   
e|------------------------------------------------------|
B|------------------------------------------------------|
G|-3----3--3--3---5----4--4--4---3----3--3--3---5----4--|
D|-3----3--3--3---5----4--4--4---3----3--3--3---5----4--| 
A|-5----5--5--5---3----2--2--2---5----5--5--5---3----2--|
E|------------------------------------------------------|

                     Break 2:
e|-----------------------------------------|
B|-----------------------------------------|
G|-5-----3-----3-----10-----11-----10------|
D|-5(x8)-3(x8)-3(x8)-10(x4)-11(x2)-10(x2)--| Repeat x3
A|-3-----1-----5-----8------9------8-------| 
E|-----------------------------------------|

e|----------------------------|
B|----------------------------|
G|-5-----3-----3-----10---11--|
D|-5(x8)-3(x8)-3(x8)-10---11--| 
A|-3-----1-----5-----8----9---| 
E|----------------------------|

e|-----------------------------------------|
B|-----------------------------------------|
G|-5-----3-----3-----10-----11-----10------|
D|-5(x8)-3(x8)-3(x8)-10(x4)-11(x2)-10(x2)--|
A|-3-----1-----5-----8------9------8-------| 
E|-----------------------------------------|

e|----------------------------|
B|----------------------------|
G|-5-----3-----3-----10---11--|
D|-5(x8)-3(x8)-3(x8)-10---11--| 
A|-3-----1-----5-----8----9---| 
E|----------------------------|

           End:
e|--------------------------|
B|--------------------------|
G|--------------------------|
D|-5----8----7----4---4--4--| 
A|-5----8----7----4---4--4--| 
E|-3----6----5----2---2--2--|      
                                   
                                   
e|---------------------------|       
B|---------------------------|
G|---------------------------|
D|-5----8----7----4---4---5--| 
A|-5----8----7----4---4---5--| 
E|-3----6----5----2---2---3--|


Comments