Mindless Self Indulgence - I Hate Jimmy Page Chords & Tabs

 

I Hate Jimmy Page Chords & Tabs

Mindless Self Indulgence Chords & Tabs

Version: 2 Type: Tab 0 ratings
1 star 2 stars 3 stars 4 stars 5 stars
comments

I Hate Jimmy Page Tab

This is my first tab but im 100% sure that it is correct.

in Drop C tuning
MSI uses very strange distortion in which the pitch is higher and distortion is more
crispy  and they also use synthesizer so....good look..


Verse*****


[-----------]                     [----------]
[-----------]                     [----------]
[-----------]repeat as neccesary  [----------] also repeat as neccesary
[---66------]                     [66-6-6-6/7]
[---66------]                     [66-6-6-6/7]
[---66------]                     [66-6-6-6/7]

CHORUS
[ Tab from: http://www.guitartabs.cc/tabs/m/mindless_self_indulgence/i_hate_jimmy_page_tab_ver_2.html ]
[----------------------------------------------------------]
[----------------------------------------------------------]
[----------------------------------------------------------]
[66666666-77777777-----11-11-11-11-11-13~~~6666666677777777]
[66666666-77777777-----11-11-11-11-11-13~~~6666666677777777]
[66666666-77777777-----11-11-11-11-11-13~~~6666666677777777]



Interlude

[--------------------------------------]
[--------------------------------------]
[--------------------------------------]
[----6----------7-----11-----11--11----] reapeat as necessary
[--6---6------7-------11---11---11-----]
[6----------7---------11-11----11-----7]

ill show you how, official midgits jack me off
oh baby baby   ill show you howww official midgits jack me ooooffffff!
YEA YEA YEA YEA YEA
I HATE JIMMY PAGE
KICK US FAGGOTS OFF THE STAGE
BITE THE FUTURE AND FUCK THE PAST
MY WHOLE SHIT WILL NEVER LAST!

FILL

[-----------------]
[---------8-------]
[66----6------66--]
[66--6--------66--]
[66-----------66--]
Comments