Mindless Self Indulgence - Bitches Chords & Tabs

 

Bitches Chords & Tabs

Mindless Self Indulgence Chords & Tabs

Version: 3 Type: Tab 0 ratings
1 star 2 stars 3 stars 4 stars 5 stars
comments

Bitches Tab

Song: Bitches
Band: Mindless Self Indulgence
Album: Bitches/Molly (Remix)
Tabbed By: Mitchell Englander (ICPmushroomKNOT)


Verse x4
E----------------------------------|
B----------------------------------|
G-----------------------------3/-4-|
D-2-2-------------------------3/-4-|
A-2-2-------------------------1/-2-|
D-0-0------------------------------|
Bitches love me cause?

Chorus x4
E-------------------------------|
B-------------------------------|
G-------------------------------|
D-------------------------------|
A-------------------------------|
D--0-3-0-3-0-1-0-1-0-4-3--------|
Throughout the projects

Before Verse 2 and bridge
E------------------------|
B------------------------|
G---7-----7--------------|
D---7-----7--------------|
A---5-----5--------------|
D------------------------|

Verse x4
Chorus x4
[ Tab from: http://www.guitartabs.cc/tabs/m/mindless_self_indulgence/bitches_tab_ver_3.html ]
Chorus part 2   x2 then x3
E------------------------|-------------------|
B------------------------|-------------------|
G------------------------|-------------------|
D------------------------|-0-3-0-3-1-0-------|
A------------------------|-------------------|
D-0-3-0-3-0-1-0-1--------|-------------------|

Bridge part 1 x2
E-------------------------------|
B-------------------------------|
G--7-8--7-8--7-8--8-8-8-8-------|
D--7-8--7-8--7-8--8-8-8-8-------|
A--5-6--5-6--5-6--6-6-6-6-------|
D-------------------------------|

Bridge part 2 x5
E--------------------------------------------------------|
B--------------------------------------------------------|
G-7--9--7--9--7--5--10--7--10--7--13--14-----------------|
D-7--9--7--9--7--5--10--7--10--7--13--14-----------------|
A-5--7--5--7--5--3--8---5---8--5--11--12-----------------|
D--------------------------------------------------------|

Bridge part 3 x4
E------|-----------------------|
B------|-----------------------|
G------|-----------------------|
D------|-----------------------|
A------|------5-5-3-3----------|
D-5-7--|-0-0-----------5-7-----|

Chorus x2
Chorus part 2
Comments