Mindflow - Breakthrough Chords & Tabs

 

Breakthrough Chords & Tabs

Mindflow Chords & Tabs

Version: 1 Type: Bass Tab

Breakthrough Bass Tab

   
Music: Breakthrough
Band: Mindflow
Tuning: D# G# C# F#

Rest until 0:48

F#|-----------------|-----------------|-----------------|-----------------|
C#|-----6-------4-6-|-----9-------9-6-|-----4-------2-4-|-----------------|
G#|-----------------|-----------------|-----------------|-----------------| x2
D#|-4--4--4---4-----|-7--7--7---7-----|-2--2--2---2-----|0----------------|

F#|-----------------|-----------------|-----------------|-----------------|
C#|-----------------|-----------------|-----------------|-----------------|
G#|-----------------|-------9-7-6-4-2-|-------------2-4-|-----------------| x4
D#|---4----4----4---|-7---------------|-2---2---2-------|0----------------|

F#|-----------------|-----------------|-----------------|-----------------|
C#|-----6-------4-6-|-----9-------9-6-|-----4-------2-4-|-----------------|
G#|-----------------|-----------------|-----------------|-----------------| x2
D#|-4--4--4---4-----|-7--7--7---7-----|-2--2--2---2-----|0----------------|

F#|-----------------|-----------------|-----------------|-----------------|
C#|-----------------|-----------------|-----------------|-----------------|
G#|-----------------|-------9-7-6-4-2-|-------------2-4-|-----------------| x4
D#|---4----4----4---|-7---------------|-2---2---2-------|0----------------|
[ Tab from: http://www.guitartabs.cc/tabs/m/mindflow/breakthrough_btab.html ]
F#|-----------------|-----------------|-----------------|-----------------|
C#|-----6-------4-6-|-----9-------9-6-|-----4-------2-4-|-----------------|
G#|-----------------|-----------------|-----------------|-----------------| x4
D#|-4--4--4---4-----|-7--7--7---7-----|-2--2--2---2-----|0----------------|

F#|-----------------|-----------------|-----------------|-----------------|
C#|-----------------|-----------------|-----------------|-----------------|
G#|-----------------|-----------------|-----------------|-----------------|
D#|-2---------------|-4---------------|-0---------------|-5---------------|

F#|-----------------|-----------------|-----------------|-----------------|
C#|-----------------|-----------------|-----------------|-----------------|
G#|-----------------|-----------------|-----------------|-----------------|
D#|-2---------------|-4---------------|-7---------------|-5---------------|

F#|-----------------|-----------------|-----------------|-----------------|
C#|-----------------|-----------------|-----------------|-----------------|
G#|-----------------|-----------------|-----------------|-----------------|
D#|-2-222-222-222-22|-4-444-444-444-44|-0--0----0---0-2-|-5---5----5------|

F#|-----------------|-----------------|-----------------|-----------------|
C#|-----------------|-----------------|-----------------|-----------------|
G#|-----------------|-----------------|-----------------|-----------------|
D#|-2-----2-----2---|-4-----4-----4---|-0-----0-----0---|-5-5-5-5-5-5-5-5-|

F#|-----------------|-----------------|-----------------|-----------------|
C#|-----6-------4-6-|-----9-------9-6-|-----4-------2-4-|-----------------|
G#|-----------------|-----------------|-----------------|-----------------| x4
D#|-4--4--4---4-----|-7--7--7---7-----|-2--2--2---2-----|0----------------|

F#|-----------------|
C#|-----------------|
D#|-----------------|
G#|-4---------------|