Milow - Out Of My Hands Chords & Tabs

 

Out Of My Hands Chords & Tabs

Milow Chords & Tabs

Version: 2 Type: Tab 0 ratings
1 star 2 stars 3 stars 4 stars 5 stars
comments

Out Of My Hands Tab

Milow - Out Of My Hands


Ok, I was looking for a tab of this amazing song
and all i found whas chords, so i decided to make
the tab myself. The intro is perfect, but the rest
is sloppy. When Milow starts to sing it's hard to 
hear what he plays, but I tried to make something
that sounds nice!

It's my first tab so plz rate + correct it!
Thx a lot, and enjoy.



Intro:

e|-0--------0--1--0-----1--0---------0--1--3---------------------------|
b|----1--3-----------3------------1-----------3------------------------|
g|--------------------------------------------0------------------------|
D|---------------------------------------------------------------------|
A|-3----------------(3)----3-------------------------------------------|
E|---------------------------------------------------------------------|


Verse 1:

e|-0--------0--1--0-----1--0----------0--3--7--5--0--------------------|
b|----1--3-----------3-------------1-----------------------------------|
g|---------------------------------------------------------------------|
D|---------------------------------------------------------------------|
A|-3-----------------------3----------------------3--------------------|
E|---------------------------------------------------------------------|
  I made the call, just to late.   At the end of may.
[ Tab from: http://www.guitartabs.cc/tabs/m/milow/out_of_my_hands_tab_ver_2.html ]
e|-------0--1--0-----1--0--------0----0--3--7--8--------------------|
b|-1--3-----------3-----------1----------------8--------------------|
g|----------------------------------5-------------------------------|
D|------------------------------------------------------------------|
A|----------------------3-------------------------------------------|
E|------------------------------------------------------------------|
    I just thought, I could wait for one more day

e|--8—-7-—5-—3-----3-----0--8--7---5--7--5--8--0--7--5-----1—-3--------|
b|--------------------1------------------------------------------------|
g|------------------------------------------------------5-----0--------|
D|---------------------------------3--------7--------3-----------------|
A|-----------------3------------------------------------------3--------|
E|---------------------------------------------------------------------|
 In the time that passed you went down so fast


e|----3--0--7------------------------------0-------1-----0-------|
b|-1------------0--1--------5---8--8----1-------------3----------|
g|----------0----------------------7-----------------------------|
D|-------------------------------------------------0-------------|
A|---------------------------------------------------------------|
E|---------------------------------------------------------------|
 You went down so fast Out of my reach Out of my hands

e|--1-1--1--0---------------0--7--5---3-------------1-0--1-------|
b|-------------3---------1------------------------3------3-------|
g|---------------------------------------------------------------|
D|----0-------------------------------------------0------0-------|
A|-------------3-------------------------------------------------|
E|---------------------------------------------------------------|
 I didn’t understand.  I would have changed all my plans


than back to the beginning
And so on…
Comments