Millionaire - Her Gender Chords & Tabs

 

Her Gender Chords & Tabs

Millionaire Chords & Tabs

Version: 2 Type: Tab 0 ratings
1 star 2 stars 3 stars 4 stars 5 stars
comments

Her Gender Tab

Her gender (fixed) ~  Millionaire (Tim Vanhamel)

==================================================

tab by Dirk den Ridder (dirkdridder@hotmail.com)

main riff:
[ Tab from: http://www.guitartabs.cc/tabs/m/millionaire/her_gender_tab_ver_2.html ]
     .   ,   .   .   .   ,   .   .
e|---------------------------------|
B|---------------------------------|
G|---------------------------------|
D|---------------------------------|
A|---------------5-5-6-8-3-3-5-5-6-|
E|-3-3-5-5---0---------------------|


     .   ,   .   .   .   ,   .   .
e|---------------------------------|
B|---------------------------------|
G|---------5-----------------------|
D|---------------------------------|
A|-----3---------5-5-6-8-3-3-5-5-6-|
E|-3-3-------0---------------------|
Comments