Million Dead - I Am The Party Chords & Tabs

 

I Am The Party Chords & Tabs

Million Dead Chords & Tabs

Version: 1 Type: Tab 0 ratings
1 star 2 stars 3 stars 4 stars 5 stars
comments

I Am The Party Tab

Gr8 band, 2 bad theres no tabs on here
www.milliondead.com


I AM THE PARTY

(standard tuning)


verse riff:

6E -0-0-x-0-0-x-0-0-0-0-0-0-0-0--0--0--x-0--0--x-0--0--0--0--0--0--0--0--
5B -8-8-x-8-8-x-8-8-8-7-7-7-7-7--10-10-x-10-10-x-12-12-12-13-13-13-13-13-
4G -0-0-x-0-0-x-0-0-0-0-0-0-0-0--0--0--x-0--0--x-0--0--0--0--0--0--0--0--
3D -9-9-x-9-9-x-9-9-9-9-9-9-9-9--10-10-x-10-10-x-12-12-12-12-12-12-12-12-



mellow riff 1:

5B ---------8---------------8----------------7---------------7-------
4G -----0-----0---0-----0-----0---0------0-----0---0-----0-----0---0-
3D ---9---9-----9-----9---9-----9------7---7-----7-----7---7-----7---
2A -7---------------7----------------5---------------5---------------


heavy riff:

6E -----------------------------------------0--0--0--0--0-
5B -----------------------------------------7--7--7--7--7-
4G -----------------9-11-11-12-12-14-14-16--0--0--0--0--0-
3D -2-2-2-2-2-2-2-2-------------------------7--7--7--7--7-
2A -2-2-2-2-2-2-2-2-7-9--9--10-10-12-12-14--5--5--5--5--5-
1E -0-0-0-0-0-0-0-0-0-0--0--0--0--0--0--0-----------------


heavy riff ending:
[ Tab from: http://www.guitartabs.cc/tabs/m/million_dead/i_am_the_party_tab.html ]
6E -0-0-0-0-0-0-0-0-0-0-0-0-0-0-0-0-0-0-0-0-0-0-0-0-0-0-0-0-0-0-0-0-0-0-0-0-0-0-0-0-0-0-0-0-0-0-0-0-
5B -5-5-5-5-5-5-5-5-5-5-5-5-5-5-5-5-5-4-4-5-4-4-5-4-4-5-4-4-5-4-4-4-4-4-4-4-4-4-4-4-4-4-4-4-4-4-4-4-
4G -0-0-0-0-0-0-0-0-0-0-0-0-0-0-0-0-0-0-0-0-0-0-0-0-0-0-0-0-0-0-0-0-0-0-0-0-0-0-0-0-0-0-0-0-0-0-0-0-
3D -5-5-5-5-5-5-5-5-5-5-5-5-5-5-5-5-5-5-5-5-5-5-5-5-5-5-5-5-5-5-5-5-4-4-4-4-4-4-4-4-4-4-4-4-4-4-4-4-
2A -3-3-3-3-3-3-3-3-3-3-3-3-3-3-3-3-----------------------------------------------------------------
1E -------------------------------------------------------------------------------------------------


bridge riff

4G -----0-------------4^0---------0-------------0-------------0-----0/2/4-4-4-4-4-4-4---------0-----
3D ---7---7-----0---0-----0---4-----4-------3-----3-------0-----0-----------0-0-0-0-0-----4-----4---
2A -6-------6-5---5---------2---2-----2-1-1---1-----1-3-3---3-----3-------------------7-7---7-----7-



outro riff:

6E -0-  -0--  -0--
5B -0-  -0--  -0--
4G -x-  -x--  -x--
3D -9-  -9--  -10-
2A -x-  -x--  -x--
1E -8-  -10-  -12-


song structure:

verse riff x4
pre-chorus riff 1 x4
pre-chorus riff 2
chorus riff x3, then chorus ending x2
chorus riff x3, then chorus ending x4
verse riff x4
chorus riff x3, then chorus ending x2
chorus riff x3
bridge riff x4, ending with a stop on the snare fill
outro riff, where you hammer the chords in the same pattern as the bridge riff x8
end
Comments