Millencolin - Vixen Chords & Tabs

 

Vixen Chords & Tabs

Millencolin Chords & Tabs

Version: 1 Type: Tab 0 ratings
1 star 2 stars 3 stars 4 stars 5 stars
comments

Vixen Tab

   
Millencolin,Vixen.
 Tabbed by Michael Svensson,micke72@hotmail.com.
  
Vixen

Verse
Bass: C                   A                   G
e|---0--0-0-0-0---0-------------------------3--3--3-3--3--3--3---|
B|--1--1-1-1-1---1---1--1-1-1-1-1-1-1--3--3--3-3--3--3--3----|
G|----------------------2--2-2-2-2-2-2-2--0--0--0-0--0--0--0---|
D|---------------------------------------------------------------------|
A|--------------------------------------------------------------------|
E|--------------------------------------------------------------------|
Vers 1
Take a pice of paper,          make a heart and            send it out to you.
And I sure wanna cut a paper, I wanna scream and shout. So don't cut me 
 out           out. cause Vixen, baby, you're allright. You are the sweetest girl that I have
met          met, don't play hard to get. \"N\"+\"L\" is true. You know that I love you.  

Vers 2
Our relationship is changing, you moved away and I am stuck. 
On you and in my empty room, but anyhow I wish you 
Luck luck  again. You're a fox and I'm a schmuck and 
I can't canít          make a chant about anything. But you, you know I can't.  .


Both guitars play:
G
Vers 1 -know that I love you.
Vers 2Ė you know I canít
Chorus:
          C      F           A      G           C       F            A     G
e|------3-3--1-1-1-1--5-5--3-3-3-3--3-3--1-1-1-1--5-5--3-3-3-3-|  
B|-----5-5--1-1-1-1--5-5--3-3-3-3--5-5--1-1-1-1--5-5--3-3-3-3-|
G|-----5-5--2-2-2-2--6-6--4-4-4-4--5-5--2-2-2-2--6-6--4-4-4-4-|
D|-----5-5--3-3-3-3--7-7--5-5-5-5--5-5--3-3-3-3--7-7--5-5-5-5-|
A|-----3-3--3-3-3-3--7-7--5-5-5-5--3-3--3-3-3-3--7-7--5-5-5-5-| 
E|-----------1-1-1-1--5-5--3-3-3-3--------1-1-1-1--5-5--3-3-3-3-|
                               It's not over, baby, it's not the ending. Vixen my heart is playing. 
                   It's not over, we're just getting higher. In this super painful game called love.
[ Tab from: http://www.guitartabs.cc/tabs/m/millencolin/vixen_tab.html ]
Bridge
e|-----------------------------------------------------------------------|
B|----------------------------------------------------------------------|
G|-----------------------------------------------2---------------------|
D|---3------------5--------------2-------------2---3---------------5-|
A|---3------------5--------------2-------------0---3---------------5-|
E|---1------------3--------------0------------------1---------------3-|
Call you up close to 5 am, woke you up again around 7.      And all I wanted you to know.




          C      F           A      G           C       F            A     G
e|------3-3--1-1-1-1--5-5--3-3-3-3--3-3--1-1-1-1--5-5--3-3-3-3-|  
B|-----5-5--1-1-1-1--5-5--3-3-3-3--5-5--1-1-1-1--5-5--3-3-3-3-|
G|-----5-5--2-2-2-2--6-6--4-4-4-4--5-5--2-2-2-2--6-6--4-4-4-4-|
D|-----5-5--3-3-3-3--7-7--5-5-5-5--5-5--3-3-3-3--7-7--5-5-5-5-|
A|-----3-3--3-3-3-3--7-7--5-5-5-5--3-3--3-3-3-3--7-7--5-5-5-5-| 
E|-----------1-1-1-1--5-5--3-3-3-3--------1-1-1-1--5-5--3-3-3-3-|
   -is that I miss you bad.  Yea I Miss you bad. Miss you bad.
I take a piece of paper, make a heart and send it to you. And I sure wanna cut a paper, I wanna scream and shout. So don't cut me out.

Chorus:
          C      F           A      G           C       F            A     G
e|------3-3--1-1-1-1--5-5--3-3-3-3--3-3--1-1-1-1--5-5--3-3-3-3-|  
B|-----5-5--1-1-1-1--5-5--3-3-3-3--5-5--1-1-1-1--5-5--3-3-3-3-|
G|-----5-5--2-2-2-2--6-6--4-4-4-4--5-5--2-2-2-2--6-6--4-4-4-4-|
D|-----5-5--3-3-3-3--7-7--5-5-5-5--5-5--3-3-3-3--7-7--5-5-5-5-|
A|-----3-3--3-3-3-3--7-7--5-5-5-5--3-3--3-3-3-3--7-7--5-5-5-5-| 
E|-----------1-1-1-1--5-5--3-3-3-3--------1-1-1-1--5-5--3-3-3-3-|
                               It's not over, baby, it's not the ending. Vixen my heart is playing. 
                   It's not over, we're just getting higher. In this super painful game called love.

Guitar 2 during last chorus
(this im really not sure about, its hard to hear what they play)
e       |-----------------------------------12b-12b-12b-12b-15b-15b-15b-15-12-8----|
B       |-/8(bend)8----8---8--5--5---5-------------------------------------------------11-|
G       |---------------------------------------------------------------------------------------|
D       |---------------------------------------------------------------------------------------|
A       |---------------------------------------------------------------------------------------|
E       |---------------------------------------------------------------------------------------|
 
:: Ultimate Guitar Archive :: 
http://www.ultimate-guitar.com 



Comments