Millencolin - The Downhill Walk Chords & Tabs

 

The Downhill Walk Chords & Tabs

Millencolin Chords & Tabs

Version: 1 Type: Tab 0 ratings
1 star 2 stars 3 stars 4 stars 5 stars
comments

The Downhill Walk Tab

Millencolin
The Dowhill Walk
Kemp(Single)
Guitar:Erik Ohlsson & Mathias Färm
Tabbed by Marcelo Riffo(skauch_54@hotmail.com)

Ok, This is a new Millencolin Song, I download it and I like it a lot!,
is a very cool song from the single Kemp!, it also have another song
It calls Absolute Zero, Maybe i`ll tab it.....
Now let`s learn this cool and easy song!

Intro/verse:
e[----------------------------]
b[----------------------------]
g[---55555-------------55555--]At Intro first one guitar then the other
d[---55555-55555-33333-55555--]
a[---33333-55555-33333-33333--]at verse with palm mute.
E[---------33333-11111--------]

Pre Chorus:

e[----------------]
b[----------------]
g[---5555555555---]
d[---5555555555---]
a[---3333333333---]
E[----------------]

Chorus:

e[-----------------------------------------------------------]
b[-----------------------------------------------------------]
g[---------55555-------------55555-------------55555---------]
d[---33333-55555-33333-33333-55555-55555-33333-55555-55555---]
a[---33333-33333-33333-33333-33333-55555-33333-33333-55555---]
E[---11111-------11111-11111-------33333-11111-------33333---]

Then Post Chorus:

e[------------------------]
b[------------------------]
g[---222222---------------]
d[---222222-555555-33333--]
a[---000000-555555-33333--]
E[----------333333-11111--]

Then The Intro Again and the second verse:
[ Tab from: http://www.guitartabs.cc/tabs/m/millencolin/the_downhill_walk_tab.html ]
e[----------------------------------------------]
b[----------------------------------------------]
g[---5(R)-5-5-5-55-5-5-5-555-55555-55-55555-55--]
d[---5(R)---------------------------------------]
a[---3(R)---------------------------------------]
E[----------------------------------------------]

Second guitar:

e[----------------------------------------------]
b[----------------------------55555-77-5555-77--]
g[---5(R)---------------------------------------]
d[---5(R)---------------------------------------]
a[---3(R)---------------------------------------]R=Let it Ring.
E[----------------------------------------------]

Then Pre Chorus
Chorus
The post chorus x 2

Then This:

e[---------------------------------------------------------]
b[---------------------------------------------------------]
g[---------------------------------------------------------]
d[---3333333333-555555555555-333333333333-55555555555555---]
a[---3333333333-555555555555-333333333333-55555555555555---]
E[---1111111111-333333333333-111111111111-33333333333333---]

Then Solo:
at the first time guitar 2 makes intro.
Guitar 1:

e[-------------------------------------]
b[-------------------------------------]
g[-------------------------------------]
d[----------------5--------------------]x 2
a[---55-7-8-7-5-3--7--55-7-8-7-5-3-5-3-]At second time Guitar 2:
E[-------------------------------------]

Guitar 2

e[-------------------------------------]
b[-----------------8-------------------]
g[---77-9-10-9-7-5--9-77-9-10-9-7-5-7-5]
d[-------------------------------------]
a[-------------------------------------]
E[-------------------------------------]
Pre Chorus
Then Chorus
Then Post Chorus
then intro
Then Solo again

Finish! at C

Thats all the song!!!!!!!!!!!!!!!!!!!!!! Thanks!
Comments