Millencolin - The Ballad Chords & Tabs

 

The Ballad Chords & Tabs

Millencolin Chords & Tabs

Version: 2 Type: Tab 0 ratings
1 star 2 stars 3 stars 4 stars 5 stars
comments

The Ballad Tab

   
punkdude_2@hotmail.com
This is what i figured it out to be, its probably all wrong and everyone here will want 
to beat me down with a broom stick, OH WELL!!!
This is the lil electric guitar bit in the song
PEACE

Te rythmn WAY off so you'll have to listen to the song for to get it right.

e-----------------------------------------------
b-----------------------------------------------
g---10--/11-11-11-11-11-/-10--10-10-10-10-10----
d---x-x--x--x--x--x--x----x---x--x--x--x--x-----  
a---8---/9--9--9--9--9--/-8---8--8--8--8--8-----   
e-----------------------------------------------   

e-----------------------------------------------
b-----------------------------------------------
g-/-11--11-11-11-11-11-/-10-10-10-/-8-----------
d---x---x--x--x--x--x----x---x--x---x-----------
a---9---9--9--9--9--9--/-8--8--8--/-6-----------
e-/---------------------------------------------   

Do this a few times, then it goes
[ Tab from: http://www.guitartabs.cc/tabs/m/millencolin/the_ballad_tab_ver_2.html ]
e-----------------------------------------------
b-----------------------------------------------
g---10--/11-11-11-11-11-/-10--10-10-10-10-10----
d---x-x--x--x--x--x--x----x---x--x--x--x--x-----  
a---8---/9--9--9--9--9--/-8---8--8--8--8--8-----   
e-----------------------------------------------   

e-----------------------------------------------
b-----------------------------------------------
g-/-11--11-11-11-11-11-/-13--13-13 13-----------
d---x---x--x--x--x--x----x---x--x--x------------
a---9---9--9--9--9--9--/-11--11-11-11-----------
e-/--------------------------------------------- 

Repeat this a few times

then play the chords when the singing starts

   G    Em    D   Cadd9
  
e--3-----3----3-----3-------
b--3-----3----3-----3-------
g-------------2-------------
d--------2----------2-------
a--2-----2----------3-------
e--3------------------------

And then it fades out

and thats how i play it, 
PEACE IDOLS
Comments