Millencolin - Shake Me Chords & Tabs

 

Shake Me Chords & Tabs

Millencolin Chords & Tabs

Version: 1 Type: Bass Tab 0 ratings
1 star 2 stars 3 stars 4 stars 5 stars
comments

Shake Me Bass Tab

Song: Shake me
Band: Millencolin
Album: Use your nose
tabbed by: Riot


Intro:
G-----------------------------------------
D-----------------------------------------
A-----------------------------------------
E---777-5-7----555-3-5--------------------



Riff 1:  (that's the hey and hoo thing)
G-----------------------------------------
D-----------------------------------------
A-----4-5-7---2-3-------------------------
E---5-------3-----------------------------  x4
[ Tab from: http://www.guitartabs.cc/tabs/m/millencolin/shake_me_btab.html ]
Riff 2:
G-----------------------------------------
D----------------------------------------- 
A-----4-5-7-3333----2-3-5555-------------- (played through the
E---5-------------3-----------------------  verse and chorus)


Riff 1


Riff 3: (but i won't try....)
G-----------------------------------------
D-----------------------------------------
A--------7777-----5555-------------------- 
E---5555------3333------------------------   x4

Intro again
Riff 2
Riff 3
Riff 1
Intro = Outro x2



questions or reasons to: riot222@yahoo.com 



Comments