Millencolin - Replay Chords & Tabs

 

Replay Chords & Tabs

Millencolin Chords & Tabs

Version: 2 Type: Bass Tab 0 ratings
1 star 2 stars 3 stars 4 stars 5 stars
comments

Replay Bass Tab

   
song: Replay
band: Millencolin
album: Life on a plate
tabbed by: Carlos Pino

verse:
G-|-------------------------------------------------------------|
D-|-------------------------------------------------------------|
A-|------------------5-5-5-5-------------------5-5-5-5----------|
E-|-7-7-7-7-3-3-3-3------------7-7-7-7-3-3-3-3------------------|

chorus:
G-|-----------------------------------------------------------
D-|-----------------------------------------------------------
A-|------------------7-7-7-7----------------------------------
E-|-3-3-3-3-5-5-5-5------------7-7-7-7-3-3-3-3-5-5-5-5-7-7-7-7
[ Tab from: http://www.guitartabs.cc/tabs/m/millencolin/replay_btab_ver_2.html ]
G-|------------------------------------------------------------|
D-|------------------------------------------------------------|
A-|------------------7-7-7-7-----------------------------------|
E-|-3-3-3-3-5-5-5-5-----------7-7-7-7-3-3-3-3-5-5-5-5--7-7-7-7-|

bridge
G-|-----------------------------------------------------------------------
D-|-----------------------------------------------------------------------
A-|-----------------------------------7-7-7-7-7-7-7-7---------------------
E-|-3-3-3-3-5-5-5-5-7-7-7-7-7-7-7-7-----------------------3-3-3-3-5-5-5-5-

G-|-----------------------------------------------------------------------
D-|-----------------------------------------------------------------------
A-|----------------------------------7-7-7-7-7-7-7-7----------------------
E-|-7-7-7-7-7-7-7-7-7-7-7-7-7-7-7-7-----------------------3-3-3-3-5-5-5-5-

G-|---------|
D-|---------|
A-|---------|
E-|-5-5-5-5-|
Comments