Millencolin - Pepper Chords & Tabs

 

Pepper Chords & Tabs

Millencolin Chords & Tabs

Version: 4 Type: Bass Tab 0 ratings
1 star 2 stars 3 stars 4 stars 5 stars
comments

Pepper Bass Tab

Artist: Millencolin 
Song: Pepper
Tabbed By: Mike O'Mara
E-mail: volcom1218@hotmail.com

Verse:
G|---------------------------------------------|
D|---------------------------------------------|
A|--22--222--222--222--277--777--7-------------|
E|--------------------------------44--422------|

G|---------------------------------------------|
D|---------------------------------------------|
A|---22--222--222--222--277--777--7------------|
E|--2------------------------------44--422-----|
[ Tab from: http://www.guitartabs.cc/tabs/m/millencolin/pepper_btab_ver_4.html ]
Chorus:
G|---------------------------------------------|
D|---------------------------------------------|
A|-----------------22222-----------------------|
E|--444442222200000----------------------------|

Bridge:
G|---------------------------------------------|
D|---------------------------------------------|
A|----------222222226666666677777777-----------|
E|--44442222-----------------------------------|

Fill:
G|---------------------------------------------|
D|---------------------------------------------|
A|--77777777-----------------------------------|
E|---------------------------------------------|

Order:

Guitar Intro
Verse
Chorus x2
Verse
Chorus x2
Bridge x6
Fill
Guitar Intro
Chorus x4
Comments