Millencolin - Penguins And Polarbears Chords & Tabs

 

Penguins And Polarbears Chords & Tabs

Millencolin Chords & Tabs

Version: 2 Type: Tab 0 ratings
1 star 2 stars 3 stars 4 stars 5 stars
comments

Penguins And Polarbears Tab

   
Artist: Millencolin

Title: Penguins and Polarbears

Album: Pennybridge pioneers

Tabbed by: Tim Bryant

E-mail comments to: afroman_69_@hotmail.com


This is a really popular song here in oz. A great song that requires 2 guitars to 
play properly but it still sounds good with one I havernt given u the timing but 
its easy as 

Intro Riff (on 8th time play this just before verse) 
e------------------------------| ------------------------------------------- 
B------------------------------| ------------------------------------------- 
G--16-16-16-16-12-14-12-12-12--| ---16-16-16-16-12--14-14-14-14-14-14-14-14- 
D--16-16-16-16-12-12-12-12-12--| ---16-16-16-16-12--12-12-12-12-12-12-12-12- 
A------------------------------| ------------------------------------------- 
E------------------------------| ------------------------------------------- 

Intro/Pre-Chorus Riff 
e--------------------------------------------------| 
B--------------------------------------------------| (played at same time 
G---4-4-4-4----------------------------------------| as intro riff) 
D---4-4-4-4-4-4-4-4-5-5-5-5-5-5-5-5----------------| 
A---2-2-2-2-4-4-4-4-5-5-5-5-5-5-5-5----------------| 
E-----------2-2-2-2-3-3-3-3-3-3-3-3----------------| 

Verse 
P.M.------ 
e-------------------------------------| 
B-------------------------------------| 
G--4-4-4-4----------------------------| 
D--4-4-4-4-4-4-4-4-5-5-5-5-7-7-7-7----| 
A--2-2-2-2-4-4-4-4-5-5-5-5-7-7-7-7----| 
E----------2-2-2-2-3-3-3-3-5-5-5-5----| 
(second guitar plays this 
Chorus through chorus) 


(main chorus)
[ Tab from: http://www.guitartabs.cc/tabs/m/millencolin/penguins_and_polarbears_tab_ver_2.html ]
e----------------------------------------------------------------|
b----------------------------------------------------------------|
g 7-7-7-7-7-7-7-7-----------------4-4-4-4-4-4-4-4----------------|
d 7-7-7-7-7-7-7-7-7-7-7-7-7-7-7-7-4-4-4-4-4-4-4-4-4-4-4-4-4-4-4-4|
a 5-5-5-5-5-5-5-5-7-7-7-7-7-7-7-7-2-2-2-2-2-2-2-2-4-4-4-4-4-4-4-4|
e ----------------5-5-5-5-5-5-5-5-----------------2-2-2-2-2-2-2-2| 


end of 2nd chorus with a subtle stabbing effect 
e--------| 
B--------| 
G--4-----| (hold) 
D--x-----| 
A--2-----| 
E--------| 

Build up to last chorus this riff played fast 
e----------------------------------------------------------------| 
B----------------------------------------------------------------| 
G-9-9-9-9-9-9-9-9-9-9-9-9-12-12-12-12-12-12-12-12-12-12-12-12----| 
D-9-9-9-9-9-9-9-9-9-9-9-9-12-12-12-12-12-12-12-12-12-12-12-12----| 
A-7-7-7-7-7-7-7-7-7-7-7-7-10-10-10-10-10-10-10-10-10-10-10-10----| 
E----------------------------------------------------------------| 

e---------------------------------------------------------------------------| 
B---------------------------------------------------------------------------| 
G-9-9-9-9-9-9-9-9-9-9-9-9-12-12-12-12-12-12-12-12-14-14-14-14-14-14-14-14---| 
D-9-9-9-9-9-9-9-9-9-9-9-9-12-12-12-12-12-12-12-12-14-14-14-14-14-14-14-14---| 
A-7-7-7-7-7-7-7-7-7-7-7-7-10-10-10-10-10-10-10-10-12-12-12-12-12-12-12-12---| 
E---------------------------------------------------------------------------| 

End 
e---------------| 
B---------------| 
G-4-4-4-4-------| 
D-2-2-2-2--4-5--| 
A-2-2-2-2--4-5--| 
E----------2-3--| 


That's It you'll probably need to listen to the song for the timing.

I'm spent.
Comments