Millencolin - Olympic Chords & Tabs

 

Olympic Chords & Tabs

Millencolin Chords & Tabs

Version: 1 Type: Tab 0 ratings
1 star 2 stars 3 stars 4 stars 5 stars
comments

Olympic Tab

Millencolin
Olympic
Life On A Plate
Guitarist: Erik Ohlsson and Mathias Farm
Tabbed By: Marcelo Riffo(Mark mathias)

Ok, here`s another tab from millencolin, this is a pretty easy song, 
and it`s very fast!!!, so get ready, the solo is a 100% right and 
everything is right, so let`s learn the song!!.

Intro:Guitar 1 with some palm mute...

e[-----------------------------------]
b[-----------------------------------]
g[-----------------------------------]
d[---99999999955555555777777777777---] X 3
a[-----------------------------------]
E[-----------------------------------]

aT Second time guitar 2 comes in:

e[---------------------------------------]
b[---------------------------------------]
g[---777777777777776666666999977776666---]
d[---------------------------------------] X 2
a[---------------------------------------]
E[---------------------------------------]

At fourth time comes in the bass and everything!!

Pre Verse: Guitar 1:

e[----------------------------------------]
b[----------------------------------------]
g[---4444444------------------------------]
d[---4444444-5555555-777777777777777------] X 2
a[---2222222-5555555-777777777777777------]
E[-----------3333333-555555555555555------]

Pre Verse: Guitar 2:

e[-----------------------------]
b[-----------------------------]
g[---7-6-7-7-6-7-6-4-6-9-7-6---]
d[-----------------------------] X 2
a[-----------------------------]
E[-----------------------------]

Verse: Both Guitars: Palm Mute

e[----------------------------------------]
b[----------------------------------------]
g[---4444444------------------------------]
d[---4444444-5555555-777777777777777------] X 2
a[---2222222-5555555-777777777777777------]
E[-----------3333333-555555555555555------]

Post Verse: "Olympic day.....you said everything was fine" Guitar 1:

e[---7-----]
b[----7----]
g[-----7---]
d[---------] x 10
a[---------]
E[---------]

Post Verse: Guitar 2:

e[-----------------------------------------]
b[-----------------------------------------]
g[---4444444-------------------------------]
d[---4444444-5555555-77777777-4444444------] X 2
a[---2222222-5555555-77777777-4444444------]
E[-----------3333333-55555555-2222222------]


then Pre verse again(the two guitars doing it`s part)X 2

Then Verse again x 2

Then Post verse again x 2

Then Chorus:

e[-------------------------------------]
b[-------------------------------------]
g[---4444444---------7777777-2222222---]
d[---4444444-5555555-7777777-2222222---] X 2
a[---2222222-5555555-5555555-0000000---]
E[-----------3333333-------------------]

Then The solo!!:

Guitar 2(Mathias) do this:
[ Tab from: http://www.guitartabs.cc/tabs/m/millencolin/olympic_tab.html ]
e[-------------------------------------------]
b[-------------------------------------------]
g[---4-4-4-4-4-------------------------------]
d[---4-4-4-4-4--5-5-5-5-5--7-7-7-7-7-7-7-7---] X 4
a[---2-2-2-2-2--5-5-5-5-5--7-7-7-7-7-7-7-7---]First two times with some
E[--------------3-3-3-3-3--5-5-5-5-5-5-5-5---]palm mute or something and
                                              Then play it fast.
At 5 time let ring:

e[--------]
b[--------]
g[---4^---]
d[---4^---]
a[---2^---]
E[--------]

Solo: Guitar 1 (Erik)

e[--------------------7----------------------7------------------------
b[----------------------7----------------------7----------------------
g[------------------------7----------------------7--------------------
d[---12-12-17-12-14-7-------12-12-17-12-14-7-------12(b)12-17-12-14-7-
a[--------------------------------------------------------------------
E[--------------------------------------------------------------------

e[----------------------------------------7---------]
b[------------------------------------------7-------]
g[--------------------------------------------7-----](b)=bend
d[---14-16-14-16-14-16--12-12-17-12-14-7--------9^--](^)=hold
a[--------------------------------------------------]
E[--------------------------------------------------]

Then after the solo the guitar two makes a crazy pick slide and the 
guitar 1 do this:

e[---7-----]
b[----7----]
g[-----7---]
d[---------] 
a[---------]
E[---------]

Then both Guitars do this:

e[-----------------------------]
b[-----------------------------]
g[-----------------------------]
d[---5555555555-777777777777---]
a[---5555555555-777777777777---]
E[---3333333333-555555555555---]

Then Chorus x 2

AT 3 time Guitar 1 (Erik) finish with the solo but with some difference:

 
e[------------------------------------------------------------------
b[------------------------------------------------------------------
g[------------------------------------------------------------------
d[---12-12-17-12-14-7--14-16-14-16-14-16--12-12-17-12-14-7----------
a[------------------------------------------------------------------
E[------------------------------------------------------------------

e[----------------------------------------------------------------
b[----------------------------------------------------------------
g[--15(b)---15(b)--15(b)------------------------------------------
d[-------14------14-----14---12-12-17-12-14-7--14-16-14-16-14-16--
a[----------------------------------------------------------------
E[----------------------------------------------------------------

e[--------------------7----------]
b[----------------------7--------]
g[------------------------7------](b)=Bend.
d[---12-12-17-12-14-7--------9---]
a[-------------------------------]
E[-------------------------------]

And Guitar 2(Mathias) do :

e[----------------------------------------]
b[----------------------------------------]
g[---4444444------------------------------]
d[---4444444-5555555-777777777777777------] X 4
a[---2222222-5555555-777777777777777------]
E[-----------3333333-555555555555555------]

Guitar 2(Mathias) finish with: 

e[-------]
b[-------]
g[---4---]
d[---4---]
a[---2---]
E[-------]

End.
Comments