Millencolin - Novo Chords & Tabs

 

Novo Chords & Tabs

Millencolin Chords & Tabs

Version: 1 Type: Tab 0 ratings
1 star 2 stars 3 stars 4 stars 5 stars
comments

Novo Tab

 note
* this song is played with two guitar, ive tabbed only 1.
this is the correct intro:

e----------------------------------|
b----------------------------------|
g-66---------466------464-66-------|
d-66-effect?-466-(e)--464-66-(e)---|
a-44---------244------242-44-------|
E----(guitar 2)--------------------|
[ Tab from: http://www.guitartabs.cc/tabs/m/millencolin/novo_tab.html ]
e-------------------------------------------------|
b-------------------------------------------------|
g-466-----464--66-----466-----464-66-----466-464--|
d-466-(e)-464--66-(e)-466-(e)-464-66-(e)-466-464--|
a-244-----242--44-----244-----242-44-----244-242--|
E-------------------------------------------------|

e-------------------------- Chourus-----------------------|x2
b---------------------------------------------------------|
g-66666-99999-77777-44444----------------------------46---|
d-66666-77777-77777-22222---secondtime same-and-then-46---|
a-44444-77777-55555-22222----------------------------24---|
E---------------------------------------------------------|
Comments