Millencolin - No Cigar Chords & Tabs

 

No Cigar Chords & Tabs

Millencolin Chords & Tabs

Version: 3 Type: Tab 0 ratings
1 star 2 stars 3 stars 4 stars 5 stars
comments

No Cigar Tab

Author/Artist: Millencolin
Title: No Cigar
Album: Pennybridge Pioneers

------------------------------------------|--------------|--------------------
-5-5-5-4-4-4-4-4-5-4-5-5-5-4-4-4-4-4-5-4--|--------------|--------------------
-6-6-6-6-6-6-6-6-6-6-6-6-6-6-6-6-6-6-6-6--|--6--9--------|--------------------
------------------------------------------|--6--9--7--4--|--------------------
------------------------------------------|--4--7--7--4--|--------------------
------------------------------------------|--------5--2--|--------------------
 -Intro/Main Riff:           -Lead Guitar     -Rhythm Guitar                  

--------------|------------------------------------------|--------------------
--------------|-------------------4-4-4-4-4---4-4-4-4-4--|--------------------
--6--9--------|-------------------6-6-6-6-6---6-6-6-6-6--|--------------------
--6--9--7--4--|--7-7-7-7-7-7-7---------------------------|--------------------
--4--7--7--4--|--7-7-7-7-7-7-7---------------------------|--------------------
--------5--2--|--5-5-5-5-5-5-5---------------------------|--------------------
 -Verse (P.M.)   (P.M.)------>               -Pre-Chorus                      

-----------------------------------------|-----------|------------------------
-----------------------------------------|-----------|------------------------
--9-9-9-9-11-11-11-11-14-14-14-14-14-14--|--9--------|------------------------
--9-9-9-9-11-11-11-11-14-14-14-14-14-14--|--9--4--7--|------------------------
--7-7-7-7--9--9--9--9-12-12-12-12-12-12--|--7--4--7--|------------------------
-----------------------------------------|-----2--5--|------------------------
 -Chorus: (play Chor. #2 w/octaves) -Lead       -Rhythm                       

--------------------|---------------------|-------------------------------|---
--------------------|---------------------|-------------------------------|---
-11-11-13-13-14-14--|--6------------------|--6--9-11--13-13-13-14-14-14---|---
--------------------|---------------------|--6--9-11----------------------|---
--9--9-11-11-12-12--|--4------------------|--4--7--9--11-11-11-12-12-12---|---
--------------------|---------------------|-------------------------------|---
 -Pre-Verse 2        -Verse 2 (Let ring)    -"We'll tell you who you are..."  
[ Tab from: http://www.guitartabs.cc/tabs/m/millencolin/no_cigar_tab_ver_3.html ]
------------------------------------------------------------------------------
-5-5-5-4-4-5-4---5-5-5-4-4-5-4---5-5-5-4-4-5-4---5-5-5-4-4-5-4----------------
-6-6-6-6-6-6-6---6-6-6-6-6-6-6---6-6-6-6-6-6-6---6-6-6-6-6-6-6----------------
------------------------------------------------------------------------------
------------------------------------------------------------------------------
------------------------------------------------------------------------------
                                                                              

---------------------------------------------------|--------------------------
-5-4-5-4-5-4-5-4-5-4-5-4-5-4-5-4-5-5-5-5-5-5-5-5---|--------------------------
-6-6-6-6-6-6-6-6-6-6-6-6-6-6-6-6-6-6-6-6-6-6-6-6---|--------------------------
---------------------------------------------------|--------------------------
---------------------------------------------------|--------------------------
---------------------------------------------------|--------------------------
 -The last measure is played by both guitars during the Bridge.               

Lyrics:

Tell us where you're from, what you want to become. 
And we'll say if you're OK. 
Where did you go to school? 
Right answer and you're cool. 
Yeah, you're the kid the whole day. 

You get a sticker in your face. 
Information about the case, so you know your potential. 
Don't you think you can extend. 
Don't you think you can extend, just comprehend. 

But I don't wanna hear it, no, it's more than I accept. 

I don't care where I belong no more. 
What we share or not I will ignore. 

We will shut you out. 
We'll put you in doubt. 
If you think that you're special. 
We'll tell you who you are. 
Tell you that you're close but no cigar. 

But I don't wanna hear it, no, it's more than I accept. 

'Cause I don't care where I belong no more. 
What we share or not I will ignore. 

And I won't waste my time fitting in. '
Cause I don't think contrast is a sin. 

What they say is... Go back, where you came from. 

They'll tell you that, but I don't wanna hear. 
No I don't wanna hear. 
No I don't wanna hear it. 
No, it's more than I accept. 

'Cause I don't care where I belong no more. 
What we share or not I will ignore. 
And I won't waste my time fitting in. 
Cause I don't think contrast is a sin. No, it's not a sin. 
Comments