Millencolin - Montego Chords & Tabs

 

Montego Chords & Tabs

Millencolin Chords & Tabs

Version: 1 Type: Tab 0 ratings
1 star 2 stars 3 stars 4 stars 5 stars
comments

Montego Tab

   
==================================================================
                        MILLENCOLIN-MONTEGO
===================================================================

This is my first tab, I'm pretty sure about the
first guitar but the second guitar I'm not so sure
about.  Also I couldn't figure out a couple
parts.  Send corrections to me please at 
sk8erpunk@boisesk8ers.com.  If you're a skater visit
my webpage at www.boisesk8ers.com.
___________________________________________________________________

Guitar 1 is EBGDAE
Guitar 2 is ebgdae
d=down stroke where noted
u=up stroke where noted
PM...=palm mute
R=let ring
DR=don't let ring
^=bend
/=slide
x=rake

Intro:                                 dd
E|----------------------------------------
B|----------------------------------------
G|----------------------------------------
D|---------------------4444------------99-
A|-4444-222-7--777-22--2222-222-7--777-77-
E|-2222-000-5--555-00-------000-5--555----
                     DR                dd
e|----------------------------------------
b|----------------------------------------
g|----------------------------------------
d|-------------------------------------99R
a|-------------------------------------77R
e|----------------------------------------
   d dud dud d  dud dd d dud dud d  dud dd 
E|-----------------------------------------
B|-----------------------------------------
G|-----------------------------------------
D|---------------------4-444------------99-
A|-4-444-222-7--777-22-2-222-222-7--777-77-
E|-2-222-000-5--555-00-------000-5--555----
                       dddd dddd dddd d dd
e|-----------------------------------------
b|-----------------------------------------
g|-----------------------------------------
d|-R---R---R-----------9999-9999-9999-9-99-
a|-R---R---R-----------7777-7777-7777-7-77-
e|-----------------------------------------
                       PM.......... . .
Pre-Verse:
   d dud dud d  dud dd d dud dud d  dud d
E|-----------------------------------------
B|-----------------------------------------
G|-----------------------------------------
D|---------------------4-444------------9--
A|-4-444-222-7--777-22-2-222-222-7--77--7--
E|-2-222-000-5--555-00-------000-5--55-----
                      DR              DR  
e|-----------------------------------------
b|-----------------------------------------
g|---------------------4-444---------------
d|-4-444-222-7--777-22-------222-7--77--9--
a|--------------------------------------7--
e|-----------------------------------------
                      DR              DR
   d dud dud d  dud dd d dud dud d  dud d
E|-----------------------------------------
B|-----------------------------------------
G|-----------------------------------------
D|---------------------4-444------------9--
A|-4-444-222-7--777-22-2-222-222-7--77--7--
E|-2-222-000-5--555-00-------000-5--55-----
                      DR              DR  
e|-----------------------------------------
b|-----------------------------------------
g|---------------------4-444---------------
d|-4-444-222-7--777-22-------222-7--77--9--
a|--------------------------------------7--
e|-----------------------------------------
                      DR              DR
Verse:
   all down stokes
E|-------------------------------------
B|-------------------------------------
G|-------------------------------------
D|-------------------44444444----------
A|-44444444-77777777-22222222-7777-777-
E|-22222222-55555555----------5555-555-
   PM...... ........ ........ ...  ..
e|-------------------------------------
b|-------------------------------------
g|-------------------------------------
d|-R---R---R---R---------------44-4/7^-
a|-R---R---R---R-----------------------
e|-------------------------------------
                              PM
  all down strokes
E|-------------------------------------
B|-------------------------------------
G|-------------------------------------
D|-------------------4444-444----------
A|-4444-444-77777777-2222-222-77777777-
E|-2222-222-55555555----------55555555-
   PM.  ..  ........ ...  ..  ........
e|-------------------------------------
b|-------------------------------------
g|-------------------------------------
d|-R---R---R-----------7-7-7-7-7-7-7-7-
a|-------------------------------------
e|-------------------------------------
  all down strokes
E|---------------------------------------------
B|---------------------------------------------
G|---------------------------------------------
D|-----------------------4-444-4444------------
A|-4-444-4444-7-777-7777-2-222-2222-7-777-7777-
E|-2-222-2222-5-555-5555------------5-555-5555-
     PM  .. .   ..  .. .   ..  .. .   ..  .. .
  Guitar 2 plays around with other notes too
e|---------------------------------------------
b|---------------------------------------------
g|---------------------------------------------
d|--------------------4/7------------------4/7-
a|---------------------------------------------
e|---------------------------------------------
  all down strokes
E|---------------------------------------------
B|---------------------------------------------
G|---------------------------------------------
D|-----------------------4-444-4444------------
A|-4-444-4444-7-777-7777-2-222-2222-7-777-77xxx
E|-2-222-2222-5-555-5555------------5-555-55xxx
     PM  .. .   ..  .. .   ..  .. .   ..  ..
  Guitar 2 plays around with other notes too
e|---------------------------------------------
b|---------------------------------------------
g|---------------------------------------------
d|--------------------4/7----------------------
a|------------------------------------------xxx
e|------------------------------------------xxx

Pre-Chorus:
E|---------------------------------------
B|---------------------------------------
G|---------------------------------------
D|-----------------------------------9-9-
A|-77777777-77777777-77777777-777777-7-7-
E|-55555555-55555555-55555555-555555-----

e|---------------------------------------
b|---------------------------------------
g|---------------------------------------
d|-----------------------------------9-9-
A|-77777777-77777777-77777777-777777-7-7-
e|-55555555-55555555-55555555-555555-----
[ Tab from: http://www.guitartabs.cc/tabs/m/millencolin/montego_tab.html ]
Chorus:
   d dud dud d  dud dd d dud dud d  dud d
E|-----------------------------------------
B|-----------------------------------------
G|-----------------------------------------
D|---------------------4-444------------9--
A|-4-444-222-7--777-22-2-222-222-7--77--7--
E|-2-222-000-5--555-00-------000-5--55-----
                      DR              DR  
e|-----------------------------------------
b|-----------------------------------------
g|---------------------4-444---------------
d|-4-444-222-7--777-22-------222-7--77--9--
a|--------------------------------------7--
e|-----------------------------------------
                      DR              DR
   d dud dud d  dud dd d dud dud d  dud d
E|-----------------------------------------
B|-----------------------------------------
G|-----------------------------------------
D|---------------------4-444------------xx-
A|-4-444-222-7--777-22-2-222-222-7--77--xx-
E|-2-222-000-5--555-00-------000-5--55-----
                      DR              DR  
e|-----------------------------------------
b|-----------------------------------------
g|---------------------4-444---------------
d|-4-444-222-7--777-22-------222-7--77--xx-
a|--------------------------------------xx-
e|-----------------------------------------
                      DR              DR
E|---------------------------------------------
B|---------------------------------------------
G|---------------------------------------------
D|---------------------------------------------
A|-44444444-77777777-------------7----------77-
E|-22222222-55555555-------------5----------55-
                    DR            DR          DR
e|---------------------------------------------
b|---------------------------------------------
g|---------------------------------------------
d|-------------------7-7-7-7-7-7-7-7-7-7-7-7---
a|---------------------------------------------
e|---------------------------------------------
  This uses some weird effect, don't let each note ring.

Verse 2 (I can't figure out G2, it has a weird effect):
E|-------------------------------------
B|-------------------------------------
G|-------------------------------------
D|-------------------44444444----------
A|-44444444-77777777-22222222-77777777-
E|-22222222-55555555----------55555555-

E|-------------------------------------
B|-------------------------------------
G|-------------------------------------
D|-------------------44444444----------
A|-44444444-77777777-22222222-77777xxx-
E|-22222222-55555555----------55555xxx-

Pre-Chorus:
E|---------------------------------------
B|---------------------------------------
G|---------------------------------------
D|-----------------------------------9-9-
A|-77777777-77777777-77777777-777777-7-7-
E|-55555555-55555555-55555555-555555-----

e|---------------------------------------
b|---------------------------------------
g|---------------------------------------
d|-----------------------------------9-9-
A|-77777777-77777777-77777777-777777-7-7-
e|-55555555-55555555-55555555-555555-----

Chorus:
   d dud dud d  dud dd d dud dud d  dud d
E|-----------------------------------------
B|-----------------------------------------
G|-----------------------------------------
D|---------------------4-444------------9--
A|-4-444-222-7--777-22-2-222-222-7--77--7--
E|-2-222-000-5--555-00-------000-5--55-----
                      DR              DR  
e|-----------------------------------------
b|-----------------------------------------
g|---------------------4-444---------------
d|-4-444-222-7--777-22-------222-7--77--9--
a|--------------------------------------7--
e|-----------------------------------------
                      DR              DR
   d dud dud d  dud dd d dud dud d  dud d
E|-----------------------------------------
B|-----------------------------------------
G|-----------------------------------------
D|---------------------4-444------------xx-
A|-4-444-222-7--777-22-2-222-222-7--77--xx-
E|-2-222-000-5--555-00-------000-5--55-----
                      DR              DR  
e|-----------------------------------------
b|-----------------------------------------
g|---------------------4-444---------------
d|-4-444-222-7--777-22-------222-7--77--xx-
a|--------------------------------------xx-
e|-----------------------------------------
                      DR              DR

Bridge:
E|-------------------------------------
B|-------------------------------------
G|-------------------------------------
D|-------------------------------------
A|-44444444-77777777-22222222-22222222-
E|-22222222-55555555-00000000-00000000-

E|--------------------
B|--------------------
G|--------------------
D|--------------------
A|-22222222-22222222--
E|-00000000-00000000--

e|--------------------
b|--------------------
g|--------------------
d|-2224477--222447----
a|--------------------
e|--------------------
   d dud dud d  dud dd d dud dud d  dud dd 
E|-----------------------------------------
B|-----------------------------------------
G|-----------------------------------------
D|---------------------4-444------------99-
A|-4-444-222-7--777-22-2-222-222-7--777-77-
E|-2-222-000-5--555-00-------000-5--555----
                                        dd
e|-----------------------------------------
b|-----------------------------------------
g|-----------------------------------------
d|--------------------------------------99-
a|--------------------------------------77-
e|-----------------------------------------
   d dud dud d  dud dd d dud dud d  dud dd 
E|-----------------------------------------
B|-----------------------------------------
G|-----------------------------------------
D|---------------------4-444------------99-
A|-4-444-222-7--777-22-2-222-222-7--777-77-
E|-2-222-000-5--555-00-------000-5--555----
   d dud dud d  dud dd d dud dud d  dud dd 
e|-----------------------------------------
b|-----------------------------------------
g|-----------------------------------------
d|---------------------4-444------------99-
a|-4-444-222-7--777-22-2-222-222-7--777-77-
e|-2-222-000-5--555-00-------000-5--555----

Chorus:
   d dud dud d  dud dd d dud dud d  dud d
E|-----------------------------------------
B|-----------------------------------------
G|-----------------------------------------
D|---------------------4-444------------9--
A|-4-444-222-7--777-22-2-222-222-7--77--7--
E|-2-222-000-5--555-00-------000-5--55-----
                      DR              DR  
e|-----------------------------------------
b|-----------------------------------------
g|---------------------4-444---------------
d|-4-444-222-7--777-22-------222-7--77--9--
a|--------------------------------------7--
e|-----------------------------------------
                      DR              DR
   d dud dud d  dud dd d dud dud d  du 
E|-----------------------------------------
B|-----------------------------------------
G|-----------------------------------------
D|---------------------4-444-----------999-
A|-4-444-222-7--777-22-2-222-222-7--77-777-
E|-2-222-000-5--555-00-------000-5--55-----
                      DR                
e|-----------------------------------------
b|-----------------------------------------
g|---------------------4-444---------------
d|-4-444-222-7--777-22-------222-7--77-999-
a|-------------------------------------777-
e|-----------------------------------------
                      DR              

End Part:
E|---------------------
B|---------------------
G|---------------------
D|---------------------
A|-44444-222-77777-222-
E|-22222-000-55555-000-

e|---------------------
b|---------------------
g|---------------------
d|-44444-222-77777-222-
a|---------------------
e|---------------------

E|---------------------
B|---------------------
G|---------------------
D|---------------------
A|-44444-222-77777-222-
E|-22222-000-55555-000-

e|---------------------
b|---------------------
g|---------------------
d|-44444-222-77777-222-
a|---------------------
e|---------------------

E|---------------------
B|---------------------
G|---------------------
D|---------------------
A|-44444-222-77777-222-
E|-22222-000-55555-000-

e|---------------------
b|---------------------
g|---------------------
d|-44444-222-77777-222-
a|---------------------
e|---------------------

I can't figure out the very end but I think its
something similar to something above.
Comments