Millencolin - Melancholy Protection Chords & Tabs

 

Melancholy Protection Chords & Tabs

Millencolin Chords & Tabs

Version: 1 Type: Tab 0 ratings
1 star 2 stars 3 stars 4 stars 5 stars
comments

Melancholy Protection Tab

   
Band: Millencolin	
Song: Melancholy protection
Album: Melancholy collections
tabbed by: Dawe!


intro:
e|------------------|
B|------------------|
G|-7---5---1---5--|
D|-7---5---1---5--|
A|-5---3---3---3--|
E|-------------------|
play this 3 times


Chorus "solo"
e|--------------------------------------------------------------|x2
B|------6--8--6-----------6p8p6--------6--------------5---------|
G|7--9-----------9--7--9---------7--9-----9--7--5--7-----7---5--|
D|--------------------------------------------------------------|
A|--------------------------------------------------------------|
E|--------------------------------------------------------------|
 then:
e|-------|
B|-------|
G|-7--9--|
D|-------|
A|-------|
E|-------|

Verse
e|---------------------------------------------------------------------------|
B|----------------------------------------------------------------------------|
G|-7-7-7-7-5-5-5-5-3-3-----7-7-7-7-7-7-5-5-5-5-3-3-3-3-5-5-5-5-|
D|-7-7-7-7-5-5-5-5-3-3-5-5-7-7-7-7-7-7-5-5-5-5-3-3-3-3-5-5-5-5-|
A|-5-5-5-5-3-3-3-3-1-1-5-5-5-5-5-5-5-5-3-3-3-3-1-1-1-1-3-3-3-3-|
E|---------------------------3-3----------------------------------------------|
[ Tab from: http://www.guitartabs.cc/tabs/m/millencolin/melancholy_protection_tab.html ]
e|------------------------------------------------------------------------------------------|
B|------------------------------------------------------------------------------------------|
G|-7-7-7-7-7-7-7-7-7-7-5-3-3-------7-7-5-5-3-3-5-5-7-7-----3-3------5-5--------|
D|-7-7-7-7-7-7-7-7-7-7-5-3-3-5-5-7-7-3-3-1-1-3-3-7-7-3-5-3-3-3-5-5-5-5-5-5|
A|-5-5-5-5-5-5-5-5-5-5-3-1-1-5-5-5-5-3-3-1-1-3-3-5-5-3-5-1-1-3-5-3-3-5-5-5|
E|-----------------------------------3-3-------------------------1-3------1-3------3-3-3|

e|--------------------------|
B|-------------------------|
G|-7-7-------3-3-----5-5|
D|-7-7-3-5-3-3-3-5-5-5|
A|-5-5-3-5-1-1-3-5-3-3|
E|-------1-3------1-3----|
after play the solo

ending                       x2                                x2
e|------------------------------|-----------------------------------------|-----|
B|-----------------------------|-----------------------------------------|-----|
G|-7-7---3-3----5-5---------|-7-7-7-7-3-3-3-3-5-5-5-5-----------|-7-7-|
D|-7-7---3-3----5-5----5-5-|-7-7-7-7-3-3-3-3-5-5-5-5-5-5-5-5-|-7-7-|
A|-5-5---1-1----3-3----5-5-|-5-5-5-5-1-1-1-1-3-3-3-3-5-5-5-5-|-5-5-|
E|-------------------------3-3-|-------------------------------3-3-3-3-|-----|


Comments