Millencolin - Material Boy Chords & Tabs

 

Material Boy Chords & Tabs

Millencolin Chords & Tabs

Version: 1 Type: Bass Tab 0 ratings
1 star 2 stars 3 stars 4 stars 5 stars
comments

Material Boy Bass Tab

band: Millencolin
album: pennybridge Pioneers
song: Material boy
tabbed by RG callaghan

intro:
 3X
g----------------
d----------------
a----5--55555--
e------5----------

then
g--------------------------------
d---------------------------------
a--333000---55555---------------
e-------------------------------

Verse:
2X:
g------------------------------
d------------------------------
a----55------------------------
e--------3333---55--3333-------
[ Tab from: http://www.guitartabs.cc/tabs/m/millencolin/material_boy_btab.html ]
then
g--------|------------------------------|----------------
d--------|------------------------------|---------------
a-55555555-2X--|--5-----12/555533333---|---5555555----
e--------|------------------------------|---------------

chorus: not sure about that!
2X
g-----------------------------
d-----------------------------
a-3X-|--55553333-|-55555-------
e-----------------------------

g-------------------------------
d------------------------------
a--5--5555----5--5-------------
e----5---------5---------------

any comment at Callaghan666@yahoo.fr

Comments