Millencolin - Lozin Must Chords & Tabs

 

Lozin Must Chords & Tabs

Millencolin Chords & Tabs

Version: 1 Type: Tab 0 ratings
1 star 2 stars 3 stars 4 stars 5 stars
comments

Lozin Must Tab

   
Author/Artist: Millencolin
Title: Lozin' Must
Transcribed by: Mark Casey

Although this is a short song it has loads of separate bits to it. 
This is the rhythm part only (including the solo). 
E-mail me at pennybridge_pioneer69@hotmail.com if you want the lead part. 
If any of it is wrong e-mail me or post a correction.

Scroll down to the bottom for the song order (believe me you'll need it). 

Enjoy.

Tuning - Eb Ab Db Gb Bb Eb



Intro:

------------------------------------------------------------------------------
------------------------------------------------------------------------------
------------------------------------------------------------------------------
-9--9-9-9-9-9-9-2--2-2-2-2-2-2-9--9-9-9-9-9-9-2--2-2-2-2-2-2-6--6-6-6-6-6-6---
-9--9-9-9-9-9-9-2--2-2-2-2-2-2-9--9-9-9-9-9-9-2--2-2-2-2-2-2-6--6-6-6-6-6-6---
-7--7-7-7-7-7-7-0--0-0-0-0-0-0-7--7-7-7-7-7-7-0--0-0-0-0-0-0-4--4-4-4-4-4-4---
                                                                              

------------------------------------------------------------------------------
------------------------------------------------------------------------------
-6--6-6-6-6-6-6---------------------------------------------------------------
-6--6-6-6-6-6-6-2--2-2-2-2-2-2-2-2-2-2-2-2-2-2--------------------------------
-4--4-4-4-4-4-4-2--2-2-2-2-2-2-2-2-2-2-2-2-2-2--------------------------------
----------------0--0-0-0-0-0-0-0-0-0-0-0-0-0-0--------------------------------
                   ------------PM-------------                                

------------------------------------------------------------------------------
------------------------------------------------------------------------------
------------------------------------------------------------------------------
-9--9-9-9-9-9-9-2--2-2-2-2-2-2-9--9-9-9-9-9-9-2--2-2-2-2-2-2-6--6-6-6-6-6-6---
-9--9-9-9-9-9-9-2--2-2-2-2-2-2-9--9-9-9-9-9-9-2--2-2-2-2-2-2-6--6-6-6-6-6-6---
-7--7-7-7-7-7-7-0--0-0-0-0-0-0-7--7-7-7-7-7-7-0--0-0-0-0-0-0-4--4-4-4-4-4-4---
                                                                              

------------------------------------------------------------------------------
------------------------------------------------------------------------------
-6--6-6-6-6-6-6---------------------------------------------------------------
-6--6-6-6-6-6-6-2--2-2-2-2-2-2-2-2-2-2-2-2-2-2--------------------------------
-4--4-4-4-4-4-4-2--2-2-2-2-2-2-2-2-2-2-2-2-2-2--------------------------------
----------------0--0-0-0-0-0-0-0-0-0-0-0-0-0-0--------------------------------
                   ------------PM-------------                                

------------------------------------------------------------------------------
------------------------------------------------------------------------------
-9--9-9-9-9-9-9-9-9-9-9-9-9-9-9-----------------------------------------------
-9--9-9-9-9-9-9-9-9-9-9-9-9-9-9-----------------------------------------------
-7--7-7-7-7-7-7-7-7-7-7-7-7-7-7-----------------------------------------------
------------------------------------------------------------------------------
                                                                              

Chorus:

------------------------------------------------------------------------------
------------------------------------------------------------------------------
---------------------------------8--8-8-8-8-8-8-8-8-8-8-8-8-8-8---------------
-9--9-9-9-9-9-9-9-9-9-9-9-9-9-9--8--8-8-8-8-8-8-8-8-8-8-8-8-8-8---------------
-9--9-9-9-9-9-9-9-9-9-9-9-9-9-9--6--6-6-6-6-6-6-6-6-6-6-6-6-6-6---------------
-7--7-7-7-7-7-7-7-7-7-7-7-7-7-7-----------------------------------------------
                                                                              

------------------------------------------------------------------------------
------------------------------------------------------------------------------
---------------------------------9--9-9-9-9-9-9-9-9-9-9-9-9-9-9---------------
-6--6-6-6-6-6-6-6-6-6-6-6-6-6-6--9--9-9-9-9-9-9-9-9-9-9-9-9-9-9---------------
-6--6-6-6-6-6-6-6-6-6-6-6-6-6-6--7--7-7-7-7-7-7-7-7-7-7-7-7-7-7---------------
-4--4-4-4-4-4-4-4-4-4-4-4-4-4-4-----------------------------------------------
                                                                              

Fill 1:

------------------------------------------------------------------------------
------------------------------------------------------------------------------
-9----------------------------------------------------------------------------
-9----------------------------------------------------------------------------
-7----------------------------------------------------------------------------
------------------------------------------------------------------------------
                                                                              

Fill 2:

------------------------------------------------------------------------------
------------------------------------------------------------------------------
-----------------------8--8--8--8--8--8--8------------------------------------
-9-9-9--9--9--9--9--9--8--8--8--8--8--8--8------------------------------------
-9-9-9--9--9--9--9--9--6--6--6--6--6--6--6------------------------------------
-7-7-7--7--7--7--7--7---------------------------------------------------------
     -------PM-------     -------PM-------                                    
[ Tab from: http://www.guitartabs.cc/tabs/m/millencolin/lozin_must_tab.html ]
------------------------------------------------------------------------------
------------------------------------------------------------------------------
-9-9-9--9--9--9--9--9-11-11-11-11-11-11-11------------------------------------
-9-9-9--9--9--9--9--9-11-11-11-11-11-11-11------------------------------------
-7-7-7--7--7--7--7--7--9--9--9--9--9--9--9------------------------------------
------------------------------------------------------------------------------
     -------PM-------    --------PM-------                                    

------------------------------------------------------------------------------
------------------------------------------------------------------------------
-----------------------8-8-8--8--8--8--8--8-----------------------------------
-9-9-9--9--9--9--9--9--8-8-8--8--8--8--8--8-----------------------------------
-9-9-9--9--9--9--9--9--6-6-6--6--6--6--6--6-----------------------------------
-7-7-7--7--7--7--7--7---------------------------------------------------------
     -------PM-------      -------PM-------                                   

------------------------------------------------------------------------------
------------------------------------------------------------------------------
-9-9-9-9-9-9-9-9-11-11-11-11-11-11-11-11--------------------------------------
-9-9-9-9-9-9-9-9-11-11-11-11-11-11-11-11--------------------------------------
-7-7-7-7-7-7-7-7--9--9--9--9--9--9--9--9--------------------------------------
------------------------------------------------------------------------------
                                                                              

Interlude:

------------------------------------------------------------------------------
------------------------------------------------------------------------------
------------------------------------------------------------------------------
-6--6-6-6-6-6-6-6-6-6-6-6-6-6-6-2--2-2-2-2-2-2-2-2-2-2-2-2-2-2----------------
-6--6-6-6-6-6-6-6-6-6-6-6-6-6-6-2--2-2-2-2-2-2-2-2-2-2-2-2-2-2----------------
-4--4-4-4-4-4-4-4-4-4-4-4-4-4-4-0--0-0-0-0-0-0-0-0-0-0-0-0-0-0----------------
                                                                              

------------------------------------------------------------------------------
------------------------------------------------------------------------------
------------------------------------------------------------------------------
-6--6-6-6-6-6-6-6-6-6-6-6-6-6-6-2--2-2-2-2-2-2-2-2-2-2-2-2-2-2----------------
-6--6-6-6-6-6-6-6-6-6-6-6-6-6-6-2--2-2-2-2-2-2-2-2-2-2-2-2-2-2----------------
-4--4-4-4-4-4-4-4-4-4-4-4-4-4-4-0--0-0-0-0-0-0-0-0-0-0-0-0-0-0----------------
                                                                              

------------------------------------------------------------------------------
------------------------------------------------------------------------------
------------------------------------------------------------------------------
-6--6-6-6-6-6-6-6-6-6-6-6-6-6-6-4--4-4-4-4-4-4-4-4-4-4-4-4-4-4----------------
-6--6-6-6-6-6-6-6-6-6-6-6-6-6-6-4--4-4-4-4-4-4-4-4-4-4-4-4-4-4----------------
-4--4-4-4-4-4-4-4-4-4-4-4-4-4-4-2--2-2-2-2-2-2-2-2-2-2-2-2-2-2----------------
                                                                              

------------------------------------------------------------------------------
------------------------------------------------------------------------------
--------------------------------9--9-9-9-9-9-9-9-9-9-9-9-9-9-9----------------
-2--2-2-2-2-2-2-2-2-2-2-2-2-2-2-9--9-9-9-9-9-9-9-9-9-9-9-9-9-9----------------
-2--2-2-2-2-2-2-2-2-2-2-2-2-2-2-7--7-7-7-7-7-7-7-7-7-7-7-7-7-7----------------
-0--0-0-0-0-0-0-0-0-0-0-0-0-0-0-----------------------------------------------
    -------------PM------------   


Solo:

------------------------------------------------------------------------------
------------------------------------------------------------------------------
---11b-----11b-8-9-8-----9-8------8-11-8--------------------------------------
-9-----9-8-----------9-------9-11--------11-----------------------------------
-----------------------9------------------------------------------------------
------------------------------------------------------------------------------
                                                                              

----14b-------14b----12-11-------12-11----11-12-14b---------------------------
-12-----12-11-----12-------12----------12-------------------------------------
------------------------------11----------------------------------------------
------------------------------------------------------------------------------
------------------------------------------------------------------------------
------------------------------------------------------------------------------


Outro:

------------------------------------------------------------------------------
------------------------------------------------------------------------------
------------------------------------------------------------------------------
-9-9--9-9---1-1--1-1---2-2--2-2-2--4------------------------------------------
-9-9--9-9---1-1--1-1---2-2--2-2-2--4------------------------------------------
-7-7--7-7--------------0-0--0-0-0--2------------------------------------------



The Order:

Intro
Chorus x 2
Fill 1
Intro
Chorus x 2
Fill 2
Interlude                                            
Solo (Rhythm plays Chorus x2)
Chorus x 2
Outro
Comments