Millencolin - Killercrush Chords & Tabs

 

Killercrush Chords & Tabs

Millencolin Chords & Tabs

Version: 2 Type: Bass Tab 0 ratings
1 star 2 stars 3 stars 4 stars 5 stars
comments

Killercrush Bass Tab

-----------------------------------------------------------------------
Killercrush
MILLENCOLIN
-----------------------------------------------------------------------

Riff 1
G|---------------------------------------------------------------|
D|---------------------------------------------------------------|    (2x)
A|-5-5-5-5-5-5-----------5-5-5-5-5-5-3-0-------------------------|
E|-------------3-3-3-3-5-----------------------------------------|

Riff 2
G|---------------------------------------------------------------|
D|---------------------------------------------------------------|    (2x)
A|-5-5-5-5-5-5-----------5-5-5-5-5-5-3-3-3-0-0-0-----------------|
E|-------------3-3-3-5-5-----------------------------------------|

Repete riff 1 (1x)
Repete riff 2 (2x)

Riff 3
G|---------------------------------------------------------------|
D|---------------------------------------------------------------|    (1x)
A|---------------------------2-4-5-7-----------------------------|
E|-3-3-3-3-3-3-3-3-5-5-5-5-5-------------------------------------|
[ Tab from: http://www.guitartabs.cc/tabs/m/millencolin/killercrush_btab_ver_2.html ]
Riff 4
G|---------------------------------------------------------------|
D|-------4-5-7-7-7-7-7-7-------2-3-5-5-5-5-5-5-------------------|    (1x)
A|-5-5-7-----------------2-2-4-----------------------------------|
E|---------------------------------------------------------------|

Riff 5
G|---------------------------------------------------------------|
D|-------4-5-7-7-7-7-7-7-----------------------------------------|    (1x)
A|-5-5-7---------------------------------------------------------|
E|-----------------------3-3-3-3-3-3-3-3-3-3-3-------------------|

Repete riff 4 (1x) 
Repete riff 5 (1x)

Repete riff 1 (2x)
Repete riff 2 (2x)
Repete riff 3 (1x)

Repete riff 4 (1x)
Repete riff 5 (1x)
Repete riff 4 (1x)
Repete riff 5 (1x)


G|---------------------------------------------------------------|
D|---------------------------------------------------------------|
A|-2*-----2*-------2-4-5-7---------------------------------------|
E|---3*-5*---3*-5*-----------------------------------------------|


Repete riff 4 (1x)
Repete riff 5 (1x)
Repete riff 4 (1x)
Repete riff 5 (1x)
Repete riff 1 (2x)
Comments