Millencolin - Kemp Chords & Tabs

 

Kemp Chords & Tabs

Millencolin Chords & Tabs

Version: 1 Type: Tab 0 ratings
1 star 2 stars 3 stars 4 stars 5 stars
comments

Kemp Tab

Artist - Millencolin
Song - Kemp
Album - Home for Home
Tabbed by - Peter Blair
Email - peter@the-guild.freeserve.co.uk
Tuning - Standard (EADGBE)

Any questions or comments please feel free to email me.

Intro (Quiet strumming): 

E---------------------------------------| 
B---------------------------------------| 
G---------------------------------------|   X 2
D-4-4-4---2-2-2---9-9-9--7-7--9--7------| 
A-4-4-4---2-2-2---9-9-9--7-7--9--5------| 
E-2-2-2---0-0-0---7-7-7--5-5--7--5------| 

Pre Verse:

E---------|-------------------------------------------| 
B---------|-------------------------------------------| 
G---------|-------------------------------------------| 
D--4-4-4--|--2-2----7-7-7---6-6-6---7-7-7---9--2-4-2-4| 
A--4-4-4--|--2-2----7-7-5---6-6-6---7-7-7---9--2-4-2-4| 
E--2-2-2--|--0-0----5-5-5---4-4-4---5-5-5---7--0-2-0-2| 

Repeat x5

End of Verse:

E---------------------------------------| 
B---------------------------------------| 
G---------------------------------------|   X 4
D-4-4-4---2-2-2---9-9-9--7-7--9--7------| 
A-4-4-4---2-2-2---9-9-9--7-7--9--5------| 
E-2-2-2---0-0-0---7-7-7--5-5--7--5------|

Chorus:
[ Tab from: http://www.guitartabs.cc/tabs/m/millencolin/kemp_tab.html ]
E----------------| 
B----------------| 
G----------------| Repeat throughout chorus
D--7-7-7---6-6-6-| 
A--7-7-5---6-6-6-| 
E--5-5-5---4-4-4-| 

End of Chorus:-

E---------------------------------------| 
B---------------------------------------| 
G---------------------------------------|   X 3
D-4-4-4---2-2-2---9-9-9--7-7--9--7------| 
A-4-4-4---2-2-2---9-9-9--7-7--9--5------| 
E-2-2-2---0-0-0---7-7-7--5-5--7--5------|

Pre-Solo

E-------------------|------------------------| 
B-------------------|------------------------|
G-------------------|------------------------|   
D-2-4-2-4--7-6-7--4-|----------4-------------|
A-2-2-2-4--7-6-7--4-|----------4-------------| 
E-0-2-0-2--5-4-5--2-|----------2-------------|

                      Strum until solo starts 

Solo

E-----14-|--------------|--------|
B--14----|-14-12--------|--------|
G--------|-------14-11--|----14--|
D--------|--------------|-11-----|
A--------|--------------|--------|
E--------|--------------|--------|

Repeat x7                 Repeat   After this it's a bit hard to make out, but as far as I can tell it's
                                   free strumming of the notes already played in the solo.

Outro

E-------| 
B-------| 
G-------|
D---4---| 
A---4---| 
E---2---|

Repeat this chord, with a quarter bend of the whole chord every third note.  It's a little hard to judge so
you just have to play it by ear.




Comments