Millencolin - Home From Home Chords & Tabs

 

Home From Home Chords & Tabs

Millencolin Chords & Tabs

Version: 2 Type: Tab 0 ratings
1 star 2 stars 3 stars 4 stars 5 stars
comments

Home From Home Tab

   
Millencolin - Home from Home - Home from Home              

Chords used

   A  D  E  A*
e---------------------------
B---------------------------
G-----------9---------------
D-----7--9--7---------------
A--7--5--7------------------
E--5------------------------


[INTRO]:
A A A A A A E E (6x)

[VERSE I]:
A (let ring)


[PRE-CHORUS]:
Guitar I
A*

Guitar II plays the following
Riff:
[ Tab from: http://www.guitartabs.cc/tabs/m/millencolin/home_from_home_tab_ver_2.html ]
e----------------------------------------
B----------------------------------------
G--------------7----------(9)------------
D-7-9--------7---9-7----9----(11)-(9-7)-- 
A-----9-7--------------------------------
E----------------------------------------
              second time without notes in brackets

[CHROUS]: (2x)
A D E A 

(similiar to) INTRO:
A A E E A A

-----------------------------------------

[VERSE II]:
d  means dowstroke
u  means upstroke
pm means palm muted

A*     A*     A*(pm) A*(pm) A*(pm)  
d------d------d------u------d----- 


Guitar I plays 
Riff

[CHORUS] (4x)


[BRIDGE]
???

[INTRO]

[CHORUS] (8x)

end with [INTRO]
Comments