Millencolin - Friends Till The End Chords & Tabs

 

Friends Till The End Chords & Tabs

Millencolin Chords & Tabs

Version: 2 Type: Bass Tab 0 ratings
1 star 2 stars 3 stars 4 stars 5 stars
comments

Friends Till The End Bass Tab

   
song: Friends till the end
Band: Millencolin
album: Life on a plate
tabbed by: Carlos Pino

verse:
G-|-----------------------------------------------------------------|
D-|-----------------------------------------------------------------|
A-|-----------------------------------------------------------------|
E-|-7-7-7-7-7-7-7-7-3-3-3-3-5-5-5-5-7-7-7-7-7-7-7-7-3-3-3-3-5-5-5-5-|
[ Tab from: http://www.guitartabs.cc/tabs/m/millencolin/friends_till_the_end_btab_ver_2.html ]
G-|---------------------------------------------
D-|----------------------------------------------
A-|-7-7-7-7-7-7-7-7-7-7-7-7-7-7-7-7-|
E-|---------------------------------------------

chorus:
G-|------------------------------------------------------------
D-|------------------------------------------------------------
A-|------------------------------------------------------------
E-|-7-7-7-7-7-7-7-7-3-3-3-3-3-3-3-3----------------

  then
G-|-----------------------------------------------------------------|
D-|-----------------------------------------------------------------|
A-|----------------------------------------------7-x-x-x-7-x-x-x-7-x-x-x-7-x-x-x-|
E-|-7-7-7-7-7-7-7-7-3-3-3-3-3-3-3-3---------------------------------|

Comments