Millencolin - Fox Chords & Tabs

 

Fox Chords & Tabs

Millencolin Chords & Tabs

Version: 5 Type: Tab 0 ratings
1 star 2 stars 3 stars 4 stars 5 stars
comments

Fox Tab

   
-------------------------------------------------------------------------------
			     FOX - Millencolin    
-------------------------------------------------------------------------------

Tabbed by: John	
Email: Foley92986@aol.com

Tuning: Standard (EADGBe)

This is Millencolin's best song, and in my opinion it's the best song ever....
It's a very easy song to play unless you've been playing for like a week....
I synchronized both of the guitars to compliment what the other one is playing...
Millencolin rules....rock on....

Intro/Chorus:

   Guitar 1-
e|-------------------------------------------------------|
B|-------------------------------------------------------|
G|-7-7-7-7---------7-7-7-7-------------------------------|
D|-7-7-7-7-5-5-5-5-7-7-7-7-5-5-5-5-9-9-9-7-7-7-5-5-5-5-5-|
A|-5-0-5-0-5-5-5-5-5-0-5-0-5-5-5-5-9-9-9-7-7-7-5-5-5-5-5-|
E|---------3-0-3-0---------3-0-3-0-7-7-7-5-5-5-3-3-3-3-3-|
 | 							 |
 | Guitar 2-						 |
e|-------------------------------------------------------|
B|-------------------------------------------------------|
G|-7-7-7-7-7-7-7-7-7-7-7-7-7-9-9-9-11-11-9-9-9-7-7-7-7-7-|
D|-x-x-x-x-x-x-x-x-x-x-x-x-x-x-x-x-x--x--x-x-x-x-x-x-x-x-|
A|-5-5-5-5-5-5-5-5-5-5-5-5-5-7-7-7-9--9--7-7-7-5-5-5-5-5-|
E|-------------------------------------------------------|


Verse (First half):

Guitar 1 is silent for first half
Guitar 2-
e|----------------------------------------------------------|
B|----------------------------------------------------------|
G|-7^-------------------------------------------------------|
D|-x-----FEEDBACK-------------------------------------------|
A|-5^-------------------------------------------------------|
E|----------------------------------------------------------|


Verse (Second half):

   Guitar 1-
e|----------------------------------------------------------|
B|----------------------------------------------------------|
G|----------------------------------------------------------|
D|----7-7-7-7---------7-7-7-7-------------------------------|
A|----5-0-5-0-5-5-5-5-5-0-5-0-5-5-5-5-9-9-9-7-7-7-5-5-5-5-5-|
E|------------3-0-3-0---------3-0-3-0-7-7-7-5-5-5-3-3-3-3-3-|
 |    pm................................................... |
 |							    |
 | Guitar 2-						    |
e|----------------------------------------------------------|
B|----------------------------------------------------------|
G|-5--7^------------------------------7-7-7-7-7-7-7-7-7-7-7-|
D|-x--x-----FEEDBACK------------------x-x-x-x-x-x-x-x-x-x-x-|
A|-3--5^------------------------------5-5-5-5-5-5-5-5-5-5-5-|
E|----------------------------------------------------------|


Bridge:
[ Tab from: http://www.guitartabs.cc/tabs/m/millencolin/fox_tab_ver_5.html ]
   Guitar 1-  
 |Play once          |Play 3 times				     |
e|-------------------|-----------------------------------------------|
B|-------------------|-----------------------------------------------|
G|-7-7-7-7-7---------|---------------------7-7-7-7-7-7---------------|
D|-7-7-7-7-7-9--7-5--|-9-9-9-9-9-7-7-7-7-7-7-7-7-7-7-7-5-5-5-5-5-5-5-|
A|-5-5-5-5-5-9--7-5--|-9-9-9-9-9-7-7-7-7-7-5-5-5-5-5-5-5-5-5-5-5-5-5-|
E|-----------7--5-3--|-7-7-7-7-7-5-5-5-5-5-------------3-3-3-3-3-3-3-|
 |		     |						     |
 | Guitar 2-         |						     |
 |Play once          |Play 3 times				     |
e|-------------------|-----------------------------------------------|
B|-------------------|-----------------------------------------------|
G|-7-7-7-7-7-11-9-7--|-11-11-11--8-8-8-8-8-7-7-7-7-7-7-9-9-9-9-9-9-9-|
D|-x-x-x-x-x-x--x-x--|-x--x--x---x-x-x-x-x-x-x-x-x-x-x-x-x-x-x-x-x-x-|
A|-5-5-5-5-5-9--7-5--|-9--9--9---6-6-6-6-6-5-5-5-5-5-5-7-7-7-7-7-7-7-|
E|-------------------|-----------------------------------------------|


Bridge (last part):

   Guitar 1-
e|------------------------------------------------------------|
B|------------------------------------------------------------|
G|------------------------------------------------------------|
D|-9--9--9--9--9--7-7-7-7-7-5^------------5-5-5-5-5-5-5-5-5-5-|
A|-9--9--9--9--9--7-7-7-7-7-5^------------5-5-5-5-5-5-5-5-5-5-|
E|-7--7--7--7--7--5-5-5-5-5-3^------------3-3-3-3-3-3-3-3-3-3-|
 |							      |
 | Guitar 2-						      |
e|------------------------------------------------------------|
B|------------------------------------------------------------|
G|-11-11-11-11-11-9-9-9-9-9-7^------------7-7-7-7-7-7-7-7-7-7-|
D|-x--x--x--x--x--x-x-x-x-x-x^------------x-x-x-x-x-x-x-x-x-x-|
A|-9--9--9--9--9--7-7-7-7-7-5^------------5-5-5-5-5-5-5-5-5-5-|
E|------------------------------------------------------------|


Solo:

Guitar 1 plays it's portion of the chorus-
Guitar 2-
e|---------------------------------------------------------------------------|
B|---------------------------------------------------------------------------|
G|-9b9b9b9b9b9b9b9b9b11-11-11-11-9-9-9-9-7-7-7-7\-----9b9b9b9b9b9b9b9b11-11--|
D|---------------------------------------------------------------------------|
A|---------------------------------------------------------------------------|
E|---------------------------------------------------------------------------|

e|--------------------------------|
B|--------------------------------|
G|-11-11-9-9-9-9------------------|
D|--------------------------------|
A|---------------5-5-5-5-5-5-5-5--|
E|--------------------------------|
                 *With WAH-WAH on this note


Intro/Chorus (2x)
Verse (first part) (1x)
Verse (second part) (1x)
Chorus (2x)
Verse (first) (1x)
Verse (second) (1x)
Chorus (2x)
Bridge 
Solo
Chorus (2x)
Finish with last three chords of chorus an additional 2 times

| /   slide up
| \   slide down
| h   hammer-on
| p   pull-off
| ~   vibrato
| +   harmonic
| x   mute note
| ^   let note ring
| pm  palm mute
| b   bend note

===============================================================================


Lyrics:

I met a fox the other day,
when I asked how much she cost, I had to pay
All of a sudden I'd brought her home
She's one hundred kilos dressed in silverchrome,

She's my world, she's so rad
She's the best ride I ever had,
She's my life, she's so bad
She's the best ride I ever had

When I imagine me and her,
You know that I get a stand-up fur,
I give her oil, I give her gas,
And get her seat beneath my ass,
Then the turtle doves drive away

She's my world, she's so rad
She's the best ride I ever had,
She's my life, she's so bad
She's the best ride I ever had

She's secondhand, so what? She's true, she's by my side,
For all I care she's hot, she's a real good ride,
When we go out people stop and stare with jealous minds,
It's OK for me as long as they let her be,
To prevent something like a theft I got her locked to a tree

She's my world, she's so rad
She's the best ride I ever had,
She's my life, she's so bad
She's the best ride I ever had

===============================================================================
Comments