Millencolin - Fox Chords & Tabs

 

Fox Chords & Tabs

Millencolin Chords & Tabs

Version: 4 Type: Tab 0 ratings
1 star 2 stars 3 stars 4 stars 5 stars
comments

Fox Tab

 |----------3-3---------3-3--------7-7---5-5--3-3-3-3--
 |----5-5---5-5---5-5---5-5--------9-9---7-7--5-5-5-5--
 |----7-7---------7-7----------------------------------
 |-----------------------------------------------------   
 |-----------------------------------------------------
 |-----------------------------------------------------

 |----------3-3---------3-3--------7-7---5-5--3-3-3-3--
 |----5-5---5-5---5-5---5-5--------9-9---7-7--5-5-5-5--
 |----7-7---------7-7----------------------------------
 |-----------------------------------------------------   
 |-----------------------------------------------------
 |-----------------------------------------------------
[ Tab from: http://www.guitartabs.cc/tabs/m/millencolin/fox_tab_ver_4.html ]
Comments