Millencolin - Fingers Crossed Chords & Tabs

 

Fingers Crossed Chords & Tabs

Millencolin Chords & Tabs

Version: 1 Type: Tab 0 ratings
1 star 2 stars 3 stars 4 stars 5 stars
comments

Fingers Crossed Tab

By:Carly Ford
Intro
e|----------------------------------------------------------
B|-7-7-7--7-7-7-8-10-8-7--7-7-7--7-7-7-8-10-8-7--7-7-7-7-7-7
G|----------------------------------------------------------
D|----------------------------------------------------------
A|----------------------------------------------------------
E|----------------------------------------------------------

e|----------------------------------------------------------
B|-8-7-5-----------------5-7-5---5-7-7-7--7-7-7-8-10-8-7-7-7
G|-------7--7-7-7--7-7-7-------7----------------------------
D|----------------------------------------------------------
A|----------------------------------------------------------
E|----------------------------------------------------------

e|----------------------------------------------------------
B|-7--7-7-7-8-10-8-7-7-7--7-7-7-8-7-5-----------------5-7-5-
G|------------------------------------7--7-7-7--7-7-7-------
D|----------------------------------------------------------
A|----------------------------------------------------------
E|----------------------------------------------------------

e|----------------------------------------------------------
B|---5-7-7-7-7-7-8-8-8-8-8-8-7------------------------------
G|-7-------------------------------------------------------
D|----------------------------------------------------------
A|----------------------------------------------------------
E|----------------------------------------------------------

Verse
e|----------------------------------------------------------
B|----------------------------------------------------------
G|-7--7-7-7-------------------------------------------------
D|-7--7-7-7---7--7-7-7-7---9-9-9-9/5-5-5---9-9-9-9/5-5-5----
A|-5--5-5-5---7--7-7-7-7---9-9-9-9/5-5-5---9-9-9-9/5-5-5----
E|------------5--5-5-5-5---7-7-7-7/3-3-3---7-7-7-7/3-3-3----
Chorus
Guitar 1
e|----------------------------------------------------------
B|-7-7-7--7-7-7-8-10-8-7--7-7-7--7-7-7-8-10-8-7--7-7-7-7-7-7
G|----------------------------------------------------------
D|----------------------------------------------------------
A|----------------------------------------------------------
E|----------------------------------------------------------

e|----------------------------------------------------------
B|-8-7-5-----------------5-7-5---5-7-7-7--7-7-7-8-10-8-7-7-7
G|-------7--7-7-7--7-7-7-------7----------------------------
D|----------------------------------------------------------
A|----------------------------------------------------------
E|----------------------------------------------------------

e|----------------------------------------------------------
B|-7--7-7-7-8-10-8-7-7-7--7-7-7-8-7-5-----------------5-7-5-
G|------------------------------------7--7-7-7--7-7-7-------
D|----------------------------------------------------------
A|----------------------------------------------------------
E|----------------------------------------------------------

e|----------------------------------------------------------
B|---5-7-7-7-7-7-8-8-8-8-8-8-7------------------------------
G|-7--------------------------------------------------------
D|----------------------------------------------------------
A|----------------------------------------------------------
E|----------------------------------------------------------
Guitar 2
e|----------------------------------------------------------
B|----------------------------------------------------------
G|-7-7-7----------------------------------------------------
D|-7-7-7-X4-7-7-7-----9-9-9-----5-5-5-----7-7-7-------------
A|-5-5-5----7-7-7-X4--9-9-9-X4--5-5-5-X2--7-7-7-X2----------
E|----------5-5-5-----7-7-7-----3-3-3-----5-5-5-------------

Verse
e|----------------------------------------------------------
B|----------------------------------------------------------
G|-7--7-7-7-------------------------------------------------
D|-7--7-7-7---7--7-7-7-7---9-9-9-9/5-5-5---9-9-9-9/5-5-5----
A|-5--5-5-5---7--7-7-7-7---9-9-9-9/5-5-5---9-9-9-9/5-5-5----
E|------------5--5-5-5-5---7-7-7-7/3-3-3---7-7-7-7/3-3-3----

Chorus
Guitar 1
e|----------------------------------------------------------
B|-7-7-7--7-7-7-8-10-8-7--7-7-7--7-7-7-8-10-8-7--7-7-7-7-7-7
G|----------------------------------------------------------
D|----------------------------------------------------------
A|----------------------------------------------------------
E|----------------------------------------------------------
[ Tab from: http://www.guitartabs.cc/tabs/m/millencolin/fingers_crossed_tab.html ]
e|----------------------------------------------------------
B|-8-7-5-----------------5-7-5---5-7-7-7--7-7-7-8-10-8-7-7-7
G|-------7--7-7-7--7-7-7-------7----------------------------
D|----------------------------------------------------------
A|----------------------------------------------------------
E|----------------------------------------------------------

e|----------------------------------------------------------
B|-7--7-7-7-8-10-8-7-7-7--7-7-7-8-7-5-----------------5-7-5-
G|------------------------------------7--7-7-7--7-7-7-------
D|----------------------------------------------------------
A|----------------------------------------------------------
E|----------------------------------------------------------

e|----------------------------------------------------------
B|---5-7-7-7-7-7-8-8-8-8-8-8-7------------------------------
G|-7--------------------------------------------------------
D|----------------------------------------------------------
A|----------------------------------------------------------
E|----------------------------------------------------------
Guitar 2
e|----------------------------------------------------------
B|----------------------------------------------------------
G|-7-7-7----------------------------------------------------
D|-7-7-7-X4-7-7-7-----9-9-9-----5-5-5-----7-7-7-------------
A|-5-5-5----7-7-7-X4--9-9-9-X4--5-5-5-X2--7-7-7-X2----------
E|----------5-5-5-----7-7-7-----3-3-3-----5-5-5-------------

"and your the one always beside me"
e|----------------------------------------------------------
B|----------------------------------------------------------
G|-7-7--7-7-7-----------------------------------------------
D|-7-7--7-7-7--11-11--11-11-11---9-9--9-9-9--9-9--11-11-11--
A|-5-5--5-5-5--11-11--11-11-11---9-9--9-9-9--9-9--11-11-11--
E|-------------9--9--9--9--9-----7-7--7-7-7--7-7---9--9--9--

"and im the one selfish and greedy"
e|----------------------------------------------------------
B|-7-7-7--7-7-7-8-10-8-7-let ring-7-7-7--7-7-7-8-10-8-7-----
G|----------------------------------------------------------
D|------------------------------------------------------5-7-
A|----------------------------------------------------------
E|----------------------------------------------------------

Chorus
Outro
Guitar 1
e|----------------------------------------------------------
B|-7-7-7--7-7-7-8-10-8-7--7-7-7--7-7-7-8-10-8-7--7-7-7-7-7-7
G|----------------------------------------------------------
D|----------------------------------------------------------
A|----------------------------------------------------------
E|----------------------------------------------------------

e|----------------------------------------------------------
B|-8-7-5-----------------5-7-5---5-7-7-7--7-7-7-8-10-8-7-7-7
G|-------7--7-7-7--7-7-7-------7----------------------------
D|----------------------------------------------------------
A|----------------------------------------------------------
E|----------------------------------------------------------

e|----------------------------------------------------------
B|-7--7-7-7-8-10-8-7-7-7--7-7-7-8-7-5-----------------5-7-5-
G|------------------------------------7--7-7-7--7-7-7-------
D|----------------------------------------------------------
A|----------------------------------------------------------
E|----------------------------------------------------------

e|----------------------------------------------------------
B|---5-7-7-7--7-7-7-8-10-8-7--7-7-7--7-7-7-8-10-8-7--7-7-7--
G|-7--------------------------------------------------------
D|----------------------------------------------------------
A|----------------------------------------------------------
E|----------------------------------------------------------

e|----------------------------------------------------------
B|-7-7-7-8-7-5-----------------5-7-5---5-7-let ring---------
G|-------------7--7-7-7--7-7-7-------7----------------------
D|----------------------------------------------------------
A|----------------------------------------------------------
E|----------------------------------------------------------

Guitar 2
e|----------------------------------------------------------
B|----------------------------------------------------------
G|-7-7-7--------------------------------------------7-------
D|-7-7-7-X4-7-7-7-----9-9-9-----5-5-5-----7-7-7-----7-------
A|-5-5-5----7-7-7-X4--9-9-9-X4--5-5-5-X2--7-7-7-X2--5-------
E|----------5-5-5-----7-7-7-----3-3-3-----5-5-5-------------
============================================================
Comments