Millencolin - Farewell My Hell Chords & Tabs

 

Farewell My Hell Chords & Tabs

Millencolin Chords & Tabs

Version: 1 Type: Tab 0 ratings
1 star 2 stars 3 stars 4 stars 5 stars
comments

Farewell My Hell Tab

   
                                  Millencolin - Farewell My Hell
Track 01.   - Kingwood ( 2005 )
Standard E-Tuning. E A D G B E

Tabbed by Niklas, Ethoharic.de
The tab is to 99% correct!!!!!
http://www.ethoharic.de
>> the biggest german millencolin page


left g.  a few times             ( 3x )            listen for the correct ryhtm!  ( 2x )
E->|----------------------|--------------------|--------------------------------------------|
B->|----------------------|--------------------|--------------------------------------------|
G->|---4-4-4-4-4-4-4-4-4--|---12-11-14-7-6-4---|--------------------------------------------|
D->|----------------------|--------------------|---9-x-x-x-x-9-x-x-x-x--5-5-5-7-7-7-9-9-9---|
A->|---2-2-2-2-2-2-2-2-2--|---10--9-12-5-4-2---|---9-x-x-x-x-9-x-x-x-x--5-5-5-7-7-7-9-9-9---|
E->|----------------------|--------------------|---7-x-x-x-x-7-x-x-x-x--3-3-3-5-5-5-7-7-7---|

right G.
E->|----------------------|--------------------|--------------------------------------------|
B->|----------------------|--------------------|--------------------------------------------|
G->|-------------7-6-4----|------------7-6-4---|--------------------------------------------|
D->|----------------------|--------------------|---9-x-x-x-x-9-x-x-x-x--5-5-5-7-7-7-9-9-9---|
A->|-------------5-4-2----|------------5-4-2---|---9-x-x-x-x-9-x-x-x-x--5-5-5-7-7-7-9-9-9---|
E->|------3-2-5-----------|----3--2--5---------|---7-x-x-x-x-7-x-x-x-x--3-3-3-5-5-5-7-7-7---|

|===========================================================================================|

left g.    ( 2x )
E->|----------------------------------------------------------------------------------------|
B->|----------------------------------------------------------------------------------------|
G->|-----------------------------------------------------------------------6-7-9------------|
D->|---5-5-5-5-5-5-5-5--7-7-7-7-7-7-7-7--4-4-4-4-4-4-4-4--9-9-9-9-9-9-9-9-------------------|
A->|---5-5-5-5-5-5-5-5--7-7-7-7-7-7-7-7--4-4-4-4-4-4-4-4--9-9-9-9-9-9-9-9--4-5-7------------|
E->|---3-3-3-3-3-3-3-3--5-5-5-5-5-5-5-5--2-2-2-2-2-2-2-2--7-7-7-7-7-7-7-7-------------------|

right g.  ( 2x )
E->|----------------------------------------------------------------------------------------|
B->|----------------------------------------------------------------------------------------|
G->|----------------------------------------------------------------------------------------|
D->|---5-5-5-5-5-5-5-5--7-7-7-7-7-7-7-7--4-4-4-4-4-4-4-4--9-9-9-9-9-9-9-9-9-9-9-------------|
A->|---5-5-5-5-5-5-5-5--7-7-7-7-7-7-7-7--4-4-4-4-4-4-4-4--9-9-9-9-9-9-9-9-9-9-9-------------|
E->|---3-3-3-3-3-3-3-3--5-5-5-5-5-5-5-5--2-2-2-2-2-2-2-2--7-7-7-7-7-7-7-7-7-7-7-------------|

|===========================================================================================|

left G.
E->|----------------------------------------------------------------------------------------|
B->|----------------------------------------------------------------------------------------|
G->|------------------12-12-12-12-12-12-11-11-11--11-11-11-9-9-9-9-9-9---------6-7-9-6--7-9-|
D->|-5-5-5-5-5-5-5-5---------------------------------------------------7-7-7-7--------------|
A->|-5-5-5-5-5-5-5-5--10-10-10-10-10-10--9--9--9--9--9--9--7-7-7-7-7-7-7-7-7-7-4-5-7-4--5-7-|
E->|-3-3-3-3-3-3-3-3---------------------------------------------------5-5-5-5--------------|

right G.
E->|----------------------------------------------------------------------------------------|
B->|----------------------------------------------------------------------------------------|
G->|----------------------------------------------------------------------------------------|
D->|-5-5-5-5-5-5-5-5-5-5-5-5-5-5-5-5-7-7-7-7-7-7-7-7-7-7-7-7-7-7-7-7-7-7-7-7-7---4--5--7----|
A->|-5-5-5-5-5-5-5-5-5-5-5-5-5-5-5-5-7-7-7-7-7-7-7-7-7-7-7-7-7-7-7-7-7-7-7-7-7---4--5--7----|
E->|-3-3-3-3-3-3-3-3-3-3-3-3-3-3-3-3-5-5-5-5-5-5-5-5-5-5-5-5-5-5-5-5-5-5-5-5-5---2--3--5----|

|===========================================================================================|

left g.                                          (2x) after the first part, play the 7/9/9 open!
E->|---------------------------------------------|------------------------------------------|
B->|---------------------------------------------|------------------------------------------|
G->|---------------12-11-14-7-6-4--12-11-14-7-6--|------------------------------------------|
D->|--9-9-9-9-9-9--------------------------------|--9-x-x-x-x-9-x-x-x-x--5-5-5-7-7-7-9-9-9--|
A->|--9-9-9-9-9-9--10--9-12-5-4-2--10--9-12-5-4--|--9-x-x-x-x-9-x-x-x-x--5-5-5-7-7-7-9-9-9--|
E->|--7-7-7-7-7-7--------------------------------|--7-x-x-x-x-7-x-x-x-x--3-3-3-5-5-5-7-7-7--|

right G.
E->|---------------------------------------------|-------------------------------------------|
B->|------------------------7-6-4--12-11-14-7-6--|-------------------------------------------|
G->|---------------------------------------------|-------------------------------------------|
D->|--9-9-9-9-9-9-----------5-4-2----------------|--9-x-x-x-x-9-x-x-x-x--5-5-5-7-7-7-9-9-9---|
A->|--9-9-9-9-9-9------------------10--9-12-5-4--|--9-x-x-x-x-9-x-x-x-x--5-5-5-7-7-7-9-9-9---|
E->|--7-7-7-7-7-7---3--2--5----------------------|--7-x-x-x-x-7-x-x-x-x--3-3-3-5-5-5-7-7-7---|

|===========================================================================================|

left g.    ( 2x )
E->|----------------------------------------------------------------------------------------|
B->|----------------------------------------------------------------------------------------|
G->|-----------------------------------------------------------------------6-7-9------------|
D->|---5-5-5-5-5-5-5-5--7-7-7-7-7-7-7-7--4-4-4-4-4-4-4-4--9-9-9-9-9-9-9-9-------------------|
A->|---5-5-5-5-5-5-5-5--7-7-7-7-7-7-7-7--4-4-4-4-4-4-4-4--9-9-9-9-9-9-9-9--4-5-7------------|
E->|---3-3-3-3-3-3-3-3--5-5-5-5-5-5-5-5--2-2-2-2-2-2-2-2--7-7-7-7-7-7-7-7-------------------|

right g.  ( 2x )
E->|----------------------------------------------------------------------------------------|
B->|----------------------------------------------------------------------------------------|
G->|----------------------------------------------------------------------------------------|
D->|---5-5-5-5-5-5-5-5--7-7-7-7-7-7-7-7--4-4-4-4-4-4-4-4--9-9-9-9-9-9-9-9-9-9-9-------------|
A->|---5-5-5-5-5-5-5-5--7-7-7-7-7-7-7-7--4-4-4-4-4-4-4-4--9-9-9-9-9-9-9-9-9-9-9-------------|
E->|---3-3-3-3-3-3-3-3--5-5-5-5-5-5-5-5--2-2-2-2-2-2-2-2--7-7-7-7-7-7-7-7-7-7-7-------------|

|===========================================================================================|
[ Tab from: http://www.guitartabs.cc/tabs/m/millencolin/farewell_my_hell_tab.html ]
left G.                                                                                    !
E->|----------------------------------------------------------------------------------------|
B->|----------------------------------------------------------------------------------------|
G->|------------------12-12-12-12-12-12-11-11-11--11-11-11-9-9-9-9-9-9---------6-7-9-6-7-9--|
D->|-5-5-5-5-5-5-5-5---------------------------------------------------7-7-7-7-------------9|
A->|-5-5-5-5-5-5-5-5--10-10-10-10-10-10--9--9--9--9--9--9--7-7-7-7-7-7-7-7-7-7-4-5-7-4-5-7-9|
E->|-3-3-3-3-3-3-3-3---------------------------------------------------5-5-5-5-------------7|

right G.
E->|----------------------------------------------------------------------------------------|
B->|----------------------------------------------------------------------------------------|
G->|----------------------------------------------------------------------------------------|
D->|-5-5-5-5-5-5-5-5-5-5-5-5-5-5-5-5-7-7-7-7-7-7-7-7-7-7-7-7-7-7-7-7-7-7-7-7-7---4--5--7---9|
A->|-5-5-5-5-5-5-5-5-5-5-5-5-5-5-5-5-7-7-7-7-7-7-7-7-7-7-7-7-7-7-7-7-7-7-7-7-7---4--5--7---9|
E->|-3-3-3-3-3-3-3-3-3-3-3-3-3-3-3-3-5-5-5-5-5-5-5-5-5-5-5-5-5-5-5-5-5-5-5-5-5---2--3--5---7|


|===========================================================================================|

left g.                          ( 2x )
E->|----------------------------------------------------------------------------------------|
B->|----------------------------------------------------------------------------------------|
G->|-----------------------------7-7-7-7-9-9-10-10-6-6-6-6-7-7-9-9----------6-6-7-7---------|
D->|--5-x-x-x--7-x-x-x---4--5-7--7-7-7-7---------------------------9-9-9-9----------5-5-5-5-|
A->|--5-x-x-x--7-x-x-x---4--5-7--5-5-5-5-7-7--9--9-4-4-4-4-5-5-7-7-9-9-9-9--4-4-5-5-5-5-5-5-|
E->|--3-x-x-x--5-x-x-x---2--3-5------------------------------------7-7-7-7----------3-3-3-3-|

right G.
E->|----------------------------------------------------------------------------------------|
B->|----------------------------------------------------------------------------------------|
G->|---12-11-7-------------------7-7-7-7-7-7-7-7-7-6-6-6-6-6-6-6-6--------------------------|
D->|---------------------4--5-7--7-7-7-7-7-7-7-7-7-6-6-6-6-6-6-6-6-9-9-9-9-9-9-9-9-5-5-5-5--|
A->|---10--9-7-----------4--5-7--5-5-5-5-5-5-5-5-5-4-4-4-4-4-4-4-4-9-9-9-9-9-9-9-9-5-5-5-5--|
E->|---------------------2--3-5------------------------------------7-7-7-7-7-7-7-7-3-3-3-3--|

|===========================================================================================|

left G.
E->|--------------------|-------------------------------------------------------------------|
B->|--------------------|-------------------------------------------------------------------|
G->|--4-4-4-4-4-4-4-4-4-|-------------------------------------------------------------------|
D->|--------------------|-------------------------------------------------------------------|
A->|--2-2-2-2-2-2-2-2-2-|-------------------------------------------------------------------|
E->|--------------------|-------------------------------------------------------------------|

right G.
E->|--------------------|-------------------------------------------------------------------|
B->|--------------------|-------------------------------------------------------------------|
G->|------------7-6-4---|-------------------------------------------------------------------|
D->|--------------------|-------------------------------------------------------------------|
A->|------------5-4-2---|-------------------------------------------------------------------|
E->|-----3-2-5----------|-------------------------------------------------------------------|

|===========================================================================================|

left g.    ( 2x )
E->|----------------------------------------------------------------------------------------|
B->|----------------------------------------------------------------------------------------|
G->|-----------------------------------------------------------------------6-7-9------------|
D->|---5-5-5-5-5-5-5-5--7-7-7-7-7-7-7-7--4-4-4-4-4-4-4-4--9-9-9-9-9-9-9-9-------------------|
A->|---5-5-5-5-5-5-5-5--7-7-7-7-7-7-7-7--4-4-4-4-4-4-4-4--9-9-9-9-9-9-9-9--4-5-7------------|
E->|---3-3-3-3-3-3-3-3--5-5-5-5-5-5-5-5--2-2-2-2-2-2-2-2--7-7-7-7-7-7-7-7-------------------|

right g.  ( 2x )
E->|----------------------------------------------------------------------------------------|
B->|----------------------------------------------------------------------------------------|
G->|----------------------------------------------------------------------------------------|
D->|---5-5-5-5-5-5-5-5--7-7-7-7-7-7-7-7--4-4-4-4-4-4-4-4--9-9-9-9-9-9-9-9-9-9-9-------------|
A->|---5-5-5-5-5-5-5-5--7-7-7-7-7-7-7-7--4-4-4-4-4-4-4-4--9-9-9-9-9-9-9-9-9-9-9-------------|
E->|---3-3-3-3-3-3-3-3--5-5-5-5-5-5-5-5--2-2-2-2-2-2-2-2--7-7-7-7-7-7-7-7-7-7-7-------------|

|===========================================================================================|

left G.
E->|----------------------------------------------------------------------------------------|
B->|----------------------------------------------------------------------------------------|
G->|------------------12-12-12-12-12-12-11-11-11--11-11-11-9-9-9-9-9-9---------6-7-9-6--7-9-|
D->|-5-5-5-5-5-5-5-5---------------------------------------------------7-7-7-7--------------|
A->|-5-5-5-5-5-5-5-5--10-10-10-10-10-10--9--9--9--9--9--9--7-7-7-7-7-7-7-7-7-7-4-5-7-4--5-7-|
E->|-3-3-3-3-3-3-3-3---------------------------------------------------5-5-5-5--------------|

right G.
E->|----------------------------------------------------------------------------------------|
B->|----------------------------------------------------------------------------------------|
G->|----------------------------------------------------------------------------------------|
D->|-5-5-5-5-5-5-5-5-5-5-5-5-5-5-5-5-7-7-7-7-7-7-7-7-7-7-7-7-7-7-7-7-7-7-7-7-7---4--5--7----|
A->|-5-5-5-5-5-5-5-5-5-5-5-5-5-5-5-5-7-7-7-7-7-7-7-7-7-7-7-7-7-7-7-7-7-7-7-7-7---4--5--7----|
E->|-3-3-3-3-3-3-3-3-3-3-3-3-3-3-3-3-5-5-5-5-5-5-5-5-5-5-5-5-5-5-5-5-5-5-5-5-5---2--3--5----|

|===========================================================================================|

left g. ending part    ( 2x )
E->|----------------------------------------------------------------------------------------|
B->|----------------------------------------------------------------------------------------|
G->|----------------------------------------------------------------------------------------|
D->|---9-9-9-9-9-9--5-5-5-5-5-5--7-7-7-7-7-7------------------------------------------------|
A->|---9-9-9-9-9-9--5-5-5-5-5-5--7-7-7-7-7-7------------------------------------------------|
E->|---7-7-7-7-7-7--3-3-3-3-3-3--5-5-5-5-5-5------------------------------------------------|
Comments