Millencolin - Every Breath You Take Chords & Tabs

 

Every Breath You Take Chords & Tabs

Millencolin Chords & Tabs

Version: 2 Type: Tab 0 ratings
1 star 2 stars 3 stars 4 stars 5 stars
comments

Every Breath You Take Tab

-------------------------------------------------------------------------------
			     Every Breath You Take - Millencoin
-------------------------------------------------------------------------------
Tabbed by:Superbum
The timing is off so listen to the song. Millencolin Is the best Punk Band Ever!

Tuning:regular

Verse 1
e|---------------------------------------------------------------------------|
B|---------------------------------------------------------------------------|
G|---------------------------------------------------------------------------|
D|---7--x8-------------------------4--x8-------------------------------------|
A|---5-----9--x8---5--x4---7--x4---2-----------------------------------------|
E|---------7-------3-------5-------------------------------------------------|

Chorus
e|---------------------------------------------------------------------------|
B|---------------------------------------------------------------------------|
G|---------------------------------------------------------------------------|
D|------------------7--x8---4--x8---9--x5------------------------------------|
A|----5--x4-2--x4---5-------2-------7----------------------------------------|
E|----3-----0----------------------------------------------------------------|
[ Tab from: http://www.guitartabs.cc/tabs/m/millencolin/every_breath_you_take_tab_ver_2.html ]
Bridge-I'm not sure about this but its close enough
e|---------------------------------------------------------------------------|
B|---------------------------------------------------------------------------|
G|---------------------------------------------------------------------------|
D|--3--x8---5--x8----x3---5--strum-till-solo---------------------------------|
A|--1-------3-------------3--------------------------------------------------|
E|---------------------------------------------------------------------------|

solo
e|---------------------------------------------------------------------------|
B|------------------------------------5-7-5---575----------------------------|
G|----------------------------------2-------2--------------------------------|
D|----0-5-7-5-0-575-----2-4-2---242---------------0-5-7-5-0-575-----x2-------|
A|--------------------2-------2----------------------------------------------|
E|---------------------------------------------------------------------------|

Verse 2
e|---------------------------------------------------------------------------|
B|---------------------------------------------------------------------------|
G|---------------------------------------------------------------------------|
D|--7-77-7-77-7-------------------------7-77-7-77-7--------------------------|
A|--5-55-5-55-5-9-99-9-99-9-5-555-7-777-5-55-5-55-5--------------------------|
E|--------------7-77-7-77-7-3-333-5-555--------------------------------------|
      PM   PM     PM   PM     PM-   PM-   PM   PM

Order:
Verse x2
Chorus
Verse
Bridge
Solo
Chorus
Verse2 x2
Verse1 x3
Comments