Millencolin - Every Breath You Take Chords & Tabs

 

Every Breath You Take Chords & Tabs

Millencolin Chords & Tabs

Version: 1 Type: Tab 0 ratings
1 star 2 stars 3 stars 4 stars 5 stars
comments

Every Breath You Take Tab

Band: Millencolin
Song: Every breath you take
Album: Melancholy collection
Tabbed by: Dawe!
Email: dawe_nr1@hotmail.com
 
I haven't got the solos yet...email me if you find som errors!
maybe there are some errors somewhere

part 1  
e-|----------------------------------------|
B-|----------------------------------------|
G-|-7-7-7-7-4-4-4-4----------------4-4-4-4-|
D-|-7-7-7-7-4-4-4-4-5-5-5-7-7-7-4-4-4-4----|
A-|-5-5-5-5-2-2-2-2-5-5-5-7-7-7-2-2-2-2----| 
E-|----------------------3-3-3-5-5-5-------| 

 part 2    (every single day...)
e-|----------------------------------------|
B-|----------------------------------------|
G-|-7-7-7-7-4-4-4-4----------------7-7-7-7-|
D-|-7-7-7-7-4-4-4-4-5-5-5-7-7-7-7-7-7-7----|
A-|-5-5-5-5-2-2-2-2-5-5-5-7-7-7-5-5-5-5----| 
E-|----------------------3-3-3-5-5-5-------| 
[ Tab from: http://www.guitartabs.cc/tabs/m/millencolin/every_breath_you_take_tab.html ]
part 3      (oh can't you see...)
e-|----------------------------------------|
B-|----------------------------------------|
G-|---------7-7-7--------3-3-3-------------|
D-|-5-5-5-7-7-7-3-3-3-3-3-3----------------|
A-|-5-5-5-5-5-5-3-3-3-1-1-1----------------| 
E-|--3-3-3--------1-1-1--------------------|
                                    \ (i'm not sure about these)
then part 1 once

part 4
e-|----------------------------------------|
B-|----------------------------------------|
G-|-3-3-5-5-7-7-9-9-7-7-5-5-3-3------------|
D-|-3-3-5-5-7-7-9-9-7-7-5-5-3-3------------|
A-|-1-1-3-3-5-5-7-7-5-5-3-3-1-1------------|
E-|----------------------------------------|
then solo1-keep playing part 2 twice

part 3      (oh can't you see...)
e-|----------------------------------------|
B-|----------------------------------------|
G-|---------7-7-7--------3-3-3-------------|
D-|-5-5-5-7-7-7-3-3-3-3-3-3----------------|
A-|-5-5-5-5-5-5-3-3-3-1-1-1----------------|
E-|--3-3-3--------1-1-1--------------------|
                                    \ (i'm not sure about these two chords)

  x=mute
e-|--------------------------------------------------------------|
B-|--------------------------------------------------------------|
G-|-5-x5-x5--5-x5-x5--4-x4-x4--4-x4-x4---------------------------|
D-|-5-x5-x5--5-x5-x5--4-x4-x4--4-x4-x4--5-x5-x5--5-x5-x5---------|play this 2 times
A-|-7-x7-x7 -7-x7-x7--2-x2-x2--2-x2-x2- 5-x5-x5--5-x5-x5---------|
E-|---------------------------------------------3-x3-x3--3-x3-x3-| 
  
then play part 2 while some solo is sounding til the end of the song
        
Comments