Millencolin - Da Strike Chords & Tabs

 

Da Strike Chords & Tabs

Millencolin Chords & Tabs

Version: 1 Type: Bass Tab 0 ratings
1 star 2 stars 3 stars 4 stars 5 stars
comments

Da Strike Bass Tab

Da Strike
By: Millencolin

Tabbed By: The Bear

Intro
G ---------------------------
D ---------------------------
A --5---33-------33----------
E -----------1---------------

Verse
G ---------------------------
D ------5--------------------
A -5787--875--575-8----------
E -----------8-------8-------
[ Tab from: http://www.guitartabs.cc/tabs/m/millencolin/da_strike_btab.html ]
Chorus
G ---------------------------
D ---------------------------
A 55-55-3333-33-------3333-33
E --------------11-11--------
Bridge Part 1
Same as verse but played in double speed

Bridge Part 2
G ---------------------------
D ---------------------------
A -5-----3-----------3-------
E -------------1-------------

Outro
G ---------------------------
D ---------------------------
A -8---8---8---5-------------
E ---8---8---8---------------

Intro x2
Verse x8
Chorus x4
Verse x8
Chorus x8
Bridge Part 1 x4
Bridge Part 2 x2
Verse x4
Outro x1

Comments