Millencolin - Bullion Chords & Tabs

 

Bullion Chords & Tabs

Millencolin Chords & Tabs

Version: 4 Type: Tab 0 ratings
1 star 2 stars 3 stars 4 stars 5 stars
comments

Bullion Tab

Song: Bullion
Artist: Millencolin
Album: Life On A Plate
Tabbed By: Adam Widing (KaFFe_DrIcK@hotmail.com)
Comment: Please correct me if this song is tabbed wrong
--------------------------------------------------------

RIFF A (Also known as Intro)
e|--------------------|
b|--------------------|
g|--------------------|
d|--7--------4--------|
a|--5--7--5--2--5--7--|
E|-----5--3-----3--5--|

RIFF B (Also known as Verse)
e|--------------------------------|
b|--------------------------------|
g|--------------------------------|
d|--7(x8)-------------4(4)-2(x4)--|
a|--5-----7(x8)-5(x8)-2----0------|
E|--------5-----3-----------------|

RIFF C (Also known as Solo)
e|------------------------------------|
b|--3--5--8--7--8--7--5--3--5--8--10--|
g|------------------------------------|
d|------------------------------------|
a|------------------------------------|
E|------------------------------------|

RIFF D (Also know as the end)
e|--------------|
b|--------------|
g|--------------|
d|--7-----4-----|
a|--5--7--2--5--|
E|-----5-----3--|
[ Tab from: http://www.guitartabs.cc/tabs/m/millencolin/bullion_tab_ver_4.html ]
So the whole song should be played like this:
RIFF A - 0:05 - 0:18
RIFF B - 0:18 - 0:43
RIFF A - 0:43 - 0:49
RIFF B - 0:50 - 1:15
RIFF C and B - 1:15 - 1:27
RIFF D - 1:27 - 1:52
RIFF A - 1:52 - 1:55
Whole running time for this song: 1:59

Note: If you listen to the song while you are playing it sholud
be very easy i think :)

Here`s the lyric for this song. It might be more easy if you have
the lyric to (hahah)

BULLION

Twenty one, feeling down
I tell you nothing with a thousand words
and I weaker get with every step
I waste my time on compact disc's and staly fish
I can't remember the last time I did something
that made me feel all right longer than a few hours
if I only had the time to make some muffins
then I swear that I would share them with you now

Am I odd or am I not?
that's the question I spend time analyzing
I'm so soft but still I'm not
living up to what people want me to be
cause I'm busy with me, myself and I
can't be understood by someone I don't know to well
so I'm shutting out the whole world just to play Nintendo
I've got these games but I'm afraid you can't join me

These last few years I've been struggling
and I'm tired of keeping a low profile
so now it's time to show that I'm alive

I'm gonna change my life, plans, Vans, start to dance
change my thoughts, sox, moves 
even change my pro fighter Q for you
Comments