Millencolin - Boring Planet Chords & Tabs

 

Boring Planet Chords & Tabs

Millencolin Chords & Tabs

Version: 1 Type: Bass Tab 0 ratings
1 star 2 stars 3 stars 4 stars 5 stars
comments

Boring Planet Bass Tab

   
Song: Boring planet
Band: Millencolin
Album: For monkeys
tabbed by: Carlos Pino

    During the guitar intro                     x2
G:---------------------------------------------------------------
D:---------------------------------------------------------------
A:-5-5-5-5-5-5-5-5----------------------2-2-2-2-2-2-2-2----------------------
E:-----------------------3-3-3-3-3-3-3-3----------------------5-5-5-5-5-5-5-5

G:---------------------------------------------------------------
D:---------------------------------------------------------------
A:---------------------------------------------------------------
E:-5-5-5-5-5-5-5-5-5-5-5-5-5-5-5-5-5-5-5-5-5-5-5
[ Tab from: http://www.guitartabs.cc/tabs/m/millencolin/boring_planet_btab.html ]
    verse
G:-----------------------------¦----------------------------------
D:-----------------------------¦----------------------------------
A:-5-5------------------------¦--------------------------------------
E:-------5-5--3-3-3-3-3-3-¦-5-5-5-5-5-5-5-5-5--5-5-5-5-5-5-5-5

Chorus - same as verse with exception
exception-replace " during the solo " with
G:---------------------------------------------------------------  x2
D:---------------------------------------------------------------
A:-5-5-5-------------------------------------------------------
E:----------3-3-3-3--7-7-7-7--5-5-5-5-------------------

repeat verse
repeat chorus without " during the solo " or exception

bridge
G:--------------------------------------------------------------- x7
D:---------------------------------------------------------------
A:-5-5-5-5----------------------------------------------------
E:------------3-3-3-3--7-7-7-7--5-5-5-5-----------------




Comments