Millencolin - Black Eye Chords & Tabs

 

Black Eye Chords & Tabs

Millencolin Chords & Tabs

Version: 1 Type: Bass Tab 0 ratings
1 star 2 stars 3 stars 4 stars 5 stars
comments

Black Eye Bass Tab

Song: Black Eye
Artist: Millencolin
Album: Home From Home
Tabbed By: Adam Simmons (numbchuck01@hotmail.com)


Intro/Chorus:

G|-------------|
D|-------------|
A|-2>----5>----|
E|----3>----5>-|

Verse:

G|-----------------------------|
D|-----------------------------|
A|-2-2-2-2-------5-5-5-5-------|
E|---------3-3-3---------5-5-5-|

Interlude:

G|----------|
D|----------|
A|----5*----|
E|-3>----5*-|

Play Intro/Chorus riff till end, end on 7th fret on E.
===========millencolin - black eye
Tabbed By: Wes
EMail: little_boy16@hotmail.com

[ Tab from: http://www.guitartabs.cc/tabs/m/millencolin/black_eye_btab.html ]
intro and chorus
"i know that you can see it in my eyes
---------------------------
---------------------------
---2x8------5x8------------
-------3x8------5x8--------

"so now i got a black eye"
---------------------------
---------------------------
---2-22-2--------5-55-5---
----------3-33-3--------5-55-5

bridge
"but everybodys talking bout you"
----------------------------
----------------------------
---------5x8----------------
---3x16-------5x8-----------

chorus

ending
------------------------------
------------------------------
-------------------------------
---33333333-55555555-666666666-7

i hope its right
Comments